ISO-10303-21;
HEADER;
FILE_DESCRIPTION (( 'STEP AP214' ),
    '1' );
FILE_NAME ('C1000H.step',
    '2012-04-20T20:46:33',
    ( '' ),
    ( '' ),
    'SwSTEP 2.0',
    'SolidWorks 2012',
    '' );
FILE_SCHEMA (( 'AUTOMOTIVE_DESIGN' ));
ENDSEC;

DATA;
#1 = DIRECTION ( 'NONE',  ( 0.0000000000000000000, -1.000000000000000000, -0.0000000000000000000 ) ) ;
#2 = DIRECTION ( 'NONE',  ( 0.0000000000000000000, 0.0000000000000000000, -1.000000000000000000 ) ) ;
#3 = PLANE ( 'NONE',  #103 ) ;
#4 = PRESENTATION_LAYER_ASSIGNMENT (  '', '', ( #5 ) ) ;
#5 = STYLED_ITEM ( 'NONE', ( #179 ), #22 ) ;
#6 = MECHANICAL_DESIGN_GEOMETRIC_PRESENTATION_REPRESENTATION (  '', ( #5 ), #85 ) ;
#7 = AXIS2_PLACEMENT_3D ( 'NONE', #184, #185, #186 ) ;
#8 = LENGTH_MEASURE_WITH_UNIT ( LENGTH_MEASURE( 0.02539999999999999900 ), #180 );
#9 =( NAMED_UNIT ( * ) PLANE_ANGLE_UNIT ( ) SI_UNIT ( $, .RADIAN. ) );
#10 =( CONVERSION_BASED_UNIT ( 'INCH', #97 ) LENGTH_UNIT ( ) NAMED_UNIT ( #16 ) );
#11 =( LENGTH_UNIT ( ) NAMED_UNIT ( * ) SI_UNIT ( $, .METRE. ) );
#12 = PRESENTATION_STYLE_ASSIGNMENT (( #13 ) ) ;
#13 = SURFACE_STYLE_USAGE ( .BOTH. , #14 ) ;
#14 = SURFACE_SIDE_STYLE ('',( #67 ) ) ;
#15 = DIMENSIONAL_EXPONENTS ( 1.000000000000000000, 0.0000000000000000000, 0.0000000000000000000, 0.0000000000000000000, 0.0000000000000000000, 0.0000000000000000000, 0.0000000000000000000 ) ;
#16 = DIMENSIONAL_EXPONENTS ( 1.000000000000000000, 0.0000000000000000000, 0.0000000000000000000, 0.0000000000000000000, 0.0000000000000000000, 0.0000000000000000000, 0.0000000000000000000 ) ;
#17 = PRODUCT ( 'C1000H', 'C1000H', '', ( #188 ) ) ;
#18 = DIMENSIONAL_EXPONENTS ( 1.000000000000000000, 0.0000000000000000000, 0.0000000000000000000, 0.0000000000000000000, 0.0000000000000000000, 0.0000000000000000000, 0.0000000000000000000 ) ;
#19 = PRODUCT_DEFINITION_SHAPE ( 'NONE', 'NONE',  #92 ) ;
#20 = MANIFOLD_SOLID_BREP ( 'Boss-Extrude1', #106 ) ;
#21 = PRODUCT_DEFINITION_CONTEXT ( 'detailed design', #110, 'design' ) ;
#22 = ADVANCED_BREP_SHAPE_REPRESENTATION ( 'C1000H', ( #20, #7 ), #84 ) ;
#23 = UNCERTAINTY_MEASURE_WITH_UNIT (LENGTH_MEASURE( 1.000000000000000100E-005 ), #170, 'distance_accuracy_value', 'NONE');
#24 = UNCERTAINTY_MEASURE_WITH_UNIT (LENGTH_MEASURE( 1.000000000000000100E-005 ), #181, 'distance_accuracy_value', 'NONE');
#25 = UNCERTAINTY_MEASURE_WITH_UNIT (LENGTH_MEASURE( 1.000000000000000100E-005 ), #10, 'distance_accuracy_value', 'NONE');
#26 = ADVANCED_FACE ( 'NONE', ( #100 ), #196, .F. ) ;
#27 = ADVANCED_FACE ( 'NONE', ( #98 ), #192, .F. ) ;
#28 = ADVANCED_FACE ( 'NONE', ( #104 ), #3, .F. ) ;
#29 = ADVANCED_FACE ( 'NONE', ( #99 ), #113, .T. ) ;
#30 = EDGE_CURVE ( 'NONE', #75, #77, #117, .T. ) ;
#31 = EDGE_CURVE ( 'NONE', #79, #74, #121, .T. ) ;
#32 = EDGE_CURVE ( 'NONE', #72, #75, #124, .T. ) ;
#33 = EDGE_CURVE ( 'NONE', #74, #75, #127, .T. ) ;
#34 = VECTOR ( 'NONE', #149, 39.37007874015748100 ) ;
#35 = VECTOR ( 'NONE', #152, 39.37007874015748100 ) ;
#36 = LENGTH_MEASURE_WITH_UNIT ( LENGTH_MEASURE( 0.02539999999999999900 ), #169 );
#37 = FACE_OUTER_BOUND ( 'NONE', #65, .T. ) ;
#38 = VECTOR ( 'NONE', #158, 39.37007874015748100 ) ;
#39 = AXIS2_PLACEMENT_3D ( 'NONE', #162, #163, #164 ) ;
#40 = VECTOR ( 'NONE', #161, 39.37007874015748100 ) ;
#41 = VECTOR ( 'NONE', #155, 39.37007874015748100 ) ;
#42 = ORIENTED_EDGE ( 'NONE', *, *, #33, .F. ) ;
#43 = ORIENTED_EDGE ( 'NONE', *, *, #31, .F. ) ;
#44 = ORIENTED_EDGE ( 'NONE', *, *, #32, .T. ) ;
#45 = EDGE_LOOP ( 'NONE', ( #59, #58, #57, #61 ) ) ;
#46 = ORIENTED_EDGE ( 'NONE', *, *, #94, .T. ) ;
#47 = ORIENTED_EDGE ( 'NONE', *, *, #89, .T. ) ;
#48 = ORIENTED_EDGE ( 'NONE', *, *, #88, .T. ) ;
#49 = ORIENTED_EDGE ( 'NONE', *, *, #94, .F. ) ;
#50 = ORIENTED_EDGE ( 'NONE', *, *, #90, .F. ) ;
#51 = EDGE_LOOP ( 'NONE', ( #55, #54, #53, #56 ) ) ;
#52 = ORIENTED_EDGE ( 'NONE', *, *, #95, .T. ) ;
#53 = ORIENTED_EDGE ( 'NONE', *, *, #32, .F. ) ;
#54 = ORIENTED_EDGE ( 'NONE', *, *, #30, .F. ) ;
#55 = ORIENTED_EDGE ( 'NONE', *, *, #95, .F. ) ;
#56 = ORIENTED_EDGE ( 'NONE', *, *, #89, .F. ) ;
#57 = ORIENTED_EDGE ( 'NONE', *, *, #31, .T. ) ;
#58 = ORIENTED_EDGE ( 'NONE', *, *, #96, .T. ) ;
#59 = ORIENTED_EDGE ( 'NONE', *, *, #90, .T. ) ;
#60 = ORIENTED_EDGE ( 'NONE', *, *, #33, .T. ) ;
#61 = ORIENTED_EDGE ( 'NONE', *, *, #93, .T. ) ;
#62 = ORIENTED_EDGE ( 'NONE', *, *, #88, .F. ) ;
#63 = EDGE_LOOP ( 'NONE', ( #44, #42, #43, #82 ) ) ;
#64 = EDGE_LOOP ( 'NONE', ( #52, #49, #50, #48 ) ) ;
#65 = EDGE_LOOP ( 'NONE', ( #47, #70, #71, #46 ) ) ;
#66 = EDGE_LOOP ( 'NONE', ( #80, #62, #81, #60 ) ) ;
#67 = SURFACE_STYLE_FILL_AREA ( #68 ) ;
#68 = FILL_AREA_STYLE ('',( #69 ) ) ;
#69 = FILL_AREA_STYLE_COLOUR ( '', #209 ) ;
#70 = ORIENTED_EDGE ( 'NONE', *, *, #91, .F. ) ;
#71 = ORIENTED_EDGE ( 'NONE', *, *, #96, .F. ) ;
#72 = VERTEX_POINT ( 'NONE', #120 ) ;
#73 = VERTEX_POINT ( 'NONE', #130 ) ;
#74 = VERTEX_POINT ( 'NONE', #131 ) ;
#75 = VERTEX_POINT ( 'NONE', #132 ) ;
#76 = VERTEX_POINT ( 'NONE', #133 ) ;
#77 = VERTEX_POINT ( 'NONE', #134 ) ;
#78 = VERTEX_POINT ( 'NONE', #135 ) ;
#79 = VERTEX_POINT ( 'NONE', #136 ) ;
#80 = ORIENTED_EDGE ( 'NONE', *, *, #30, .T. ) ;
#81 = ORIENTED_EDGE ( 'NONE', *, *, #93, .F. ) ;
#82 = ORIENTED_EDGE ( 'NONE', *, *, #91, .T. ) ;
#83 =( GEOMETRIC_REPRESENTATION_CONTEXT ( 3 ) GLOBAL_UNCERTAINTY_ASSIGNED_CONTEXT ( ( #25 ) ) GLOBAL_UNIT_ASSIGNED_CONTEXT ( ( #10, #9, #197 ) ) REPRESENTATION_CONTEXT ( 'NONE', 'WORKASPACE' ) );
#84 =( GEOMETRIC_REPRESENTATION_CONTEXT ( 3 ) GLOBAL_UNCERTAINTY_ASSIGNED_CONTEXT ( ( #23 ) ) GLOBAL_UNIT_ASSIGNED_CONTEXT ( ( #170, #171, #172 ) ) REPRESENTATION_CONTEXT ( 'NONE', 'WORKASPACE' ) );
#85 =( GEOMETRIC_REPRESENTATION_CONTEXT ( 3 ) GLOBAL_UNCERTAINTY_ASSIGNED_CONTEXT ( ( #24 ) ) GLOBAL_UNIT_ASSIGNED_CONTEXT ( ( #181, #182, #183 ) ) REPRESENTATION_CONTEXT ( 'NONE', 'WORKASPACE' ) );
#86 = PRODUCT_DEFINITION_FORMATION_WITH_SPECIFIED_SOURCE ( 'ANY', '', #17, .NOT_KNOWN. ) ;
#87 = PRODUCT_RELATED_PRODUCT_CATEGORY ( 'part', '', ( #17 ) ) ;
#88 = EDGE_CURVE ( 'NONE', #76, #77, #137, .T. ) ;
#89 = EDGE_CURVE ( 'NONE', #78, #72, #141, .T. ) ;
#90 = EDGE_CURVE ( 'NONE', #76, #73, #144, .T. ) ;
#91 = EDGE_CURVE ( 'NONE', #79, #72, #147, .T. ) ;
#92 = PRODUCT_DEFINITION ( 'UNKNOWN', '', #86, #21 ) ;
#93 = EDGE_CURVE ( 'NONE', #74, #76, #150, .T. ) ;
#94 = EDGE_CURVE ( 'NONE', #73, #78, #153, .T. ) ;
#95 = EDGE_CURVE ( 'NONE', #77, #78, #156, .T. ) ;
#96 = EDGE_CURVE ( 'NONE', #73, #79, #159, .T. ) ;
#97 = LENGTH_MEASURE_WITH_UNIT ( LENGTH_MEASURE( 0.02539999999999999900 ), #11 );
#98 = FACE_OUTER_BOUND ( 'NONE', #66, .T. ) ;
#99 = FACE_OUTER_BOUND ( 'NONE', #51, .T. ) ;
#100 = FACE_OUTER_BOUND ( 'NONE', #63, .T. ) ;
#101 = STYLED_ITEM ( 'NONE', ( #12 ), #20 ) ;
#102 = MECHANICAL_DESIGN_GEOMETRIC_PRESENTATION_REPRESENTATION (  '', ( #101 ), #83 ) ;
#103 = AXIS2_PLACEMENT_3D ( 'NONE', #109, #1, #112 ) ;
#104 = FACE_OUTER_BOUND ( 'NONE', #45, .T. ) ;
#105 = PRESENTATION_LAYER_ASSIGNMENT (  '', '', ( #101 ) ) ;
#106 = CLOSED_SHELL ( 'NONE', ( #210, #211, #26, #27, #28, #29 ) ) ;
#107 = AXIS2_PLACEMENT_3D ( 'NONE', #195, #194, #193 ) ;
#108 = AXIS2_PLACEMENT_3D ( 'NONE', #191, #190, #2 ) ;
#109 = CARTESIAN_POINT ( 'NONE',  ( 0.0000000000000000000, 1.000000000000000000, 0.0000000000000000000 ) ) ;
#110 = APPLICATION_CONTEXT ( 'automotive_design' ) ;
#111 = APPLICATION_CONTEXT ( 'automotive_design' ) ;
#112 = DIRECTION ( 'NONE',  ( 0.0000000000000000000, 0.0000000000000000000, -1.000000000000000000 ) ) ;
#113 = PLANE ( 'NONE',  #207 ) ;
#114 = CARTESIAN_POINT ( 'NONE',  ( 0.0000000000000000000, 0.0000000000000000000, 0.0000000000000000000 ) ) ;
#115 = DIRECTION ( 'NONE',  ( 0.0000000000000000000, -1.000000000000000000, -0.0000000000000000000 ) ) ;
#116 = DIRECTION ( 'NONE',  ( 0.0000000000000000000, 0.0000000000000000000, -1.000000000000000000 ) ) ;
#117 = LINE ( 'NONE', #118, #206 ) ;
#118 = CARTESIAN_POINT ( 'NONE',  ( 0.0000000000000000000, 0.0000000000000000000, 0.0000000000000000000 ) ) ;
#119 = DIRECTION ( 'NONE',  ( -0.0000000000000000000, -0.0000000000000000000, 1.000000000000000000 ) ) ;
#120 = CARTESIAN_POINT ( 'NONE',  ( 1.000000000000000000, 0.0000000000000000000, -1.000000000000000000 ) ) ;
#121 = LINE ( 'NONE', #122, #205 ) ;
#122 = CARTESIAN_POINT ( 'NONE',  ( 0.0000000000000000000, 1.000000000000000000, -1.000000000000000000 ) ) ;
#123 = DIRECTION ( 'NONE',  ( -1.000000000000000000, -0.0000000000000000000, -0.0000000000000000000 ) ) ;
#124 = LINE ( 'NONE', #125, #203 ) ;
#125 = CARTESIAN_POINT ( 'NONE',  ( 0.0000000000000000000, 0.0000000000000000000, -1.000000000000000000 ) ) ;
#126 = DIRECTION ( 'NONE',  ( -1.000000000000000000, -0.0000000000000000000, -0.0000000000000000000 ) ) ;
#127 = LINE ( 'NONE', #128, #202 ) ;
#128 = CARTESIAN_POINT ( 'NONE',  ( 0.0000000000000000000, 1.000000000000000000, -1.000000000000000000 ) ) ;
#129 = DIRECTION ( 'NONE',  ( -0.0000000000000000000, -1.000000000000000000, -0.0000000000000000000 ) ) ;
#130 = CARTESIAN_POINT ( 'NONE',  ( 1.000000000000000000, 1.000000000000000000, -9.184850993605147200E-017 ) ) ;
#131 = CARTESIAN_POINT ( 'NONE',  ( 0.0000000000000000000, 1.000000000000000000, -1.000000000000000000 ) ) ;
#132 = CARTESIAN_POINT ( 'NONE',  ( 0.0000000000000000000, 0.0000000000000000000, -1.000000000000000000 ) ) ;
#133 = CARTESIAN_POINT ( 'NONE',  ( 0.0000000000000000000, 1.000000000000000000, 0.0000000000000000000 ) ) ;
#134 = CARTESIAN_POINT ( 'NONE',  ( 0.0000000000000000000, 0.0000000000000000000, 0.0000000000000000000 ) ) ;
#135 = CARTESIAN_POINT ( 'NONE',  ( 1.000000000000000000, 0.0000000000000000000, -9.184850993605147200E-017 ) ) ;
#136 = CARTESIAN_POINT ( 'NONE',  ( 1.000000000000000000, 1.000000000000000000, -1.000000000000000000 ) ) ;
#137 = LINE ( 'NONE', #138, #201 ) ;
#138 = CARTESIAN_POINT ( 'NONE',  ( 0.0000000000000000000, 1.000000000000000000, 0.0000000000000000000 ) ) ;
#139 = DIRECTION ( 'NONE',  ( -0.0000000000000000000, -1.000000000000000000, -0.0000000000000000000 ) ) ;
#140 = PLANE ( 'NONE',  #39 ) ;
#141 = LINE ( 'NONE', #142, #200 ) ;
#142 = CARTESIAN_POINT ( 'NONE',  ( 1.000000000000000000, 0.0000000000000000000, -1.000000000000000000 ) ) ;
#143 = DIRECTION ( 'NONE',  ( -0.0000000000000000000, -0.0000000000000000000, -1.000000000000000000 ) ) ;
#144 = LINE ( 'NONE', #145, #198 ) ;
#145 = CARTESIAN_POINT ( 'NONE',  ( 1.000000000000000000, 1.000000000000000000, -9.184850993605147200E-017 ) ) ;
#146 = DIRECTION ( 'NONE',  ( 1.000000000000000000, -0.0000000000000000000, -9.184850993605147200E-017 ) ) ;
#147 = LINE ( 'NONE', #148, #34 ) ;
#148 = CARTESIAN_POINT ( 'NONE',  ( 1.000000000000000000, 1.000000000000000000, -1.000000000000000000 ) ) ;
#149 = DIRECTION ( 'NONE',  ( -0.0000000000000000000, -1.000000000000000000, -0.0000000000000000000 ) ) ;
#150 = LINE ( 'NONE', #151, #35 ) ;
#151 = CARTESIAN_POINT ( 'NONE',  ( 0.0000000000000000000, 1.000000000000000000, 0.0000000000000000000 ) ) ;
#152 = DIRECTION ( 'NONE',  ( -0.0000000000000000000, -0.0000000000000000000, 1.000000000000000000 ) ) ;
#153 = LINE ( 'NONE', #154, #41 ) ;
#154 = CARTESIAN_POINT ( 'NONE',  ( 1.000000000000000000, 1.000000000000000000, -9.184850993605147200E-017 ) ) ;
#155 = DIRECTION ( 'NONE',  ( -0.0000000000000000000, -1.000000000000000000, -0.0000000000000000000 ) ) ;
#156 = LINE ( 'NONE', #157, #38 ) ;
#157 = CARTESIAN_POINT ( 'NONE',  ( 1.000000000000000000, 0.0000000000000000000, -9.184850993605147200E-017 ) ) ;
#158 = DIRECTION ( 'NONE',  ( 1.000000000000000000, -0.0000000000000000000, -9.184850993605147200E-017 ) ) ;
#159 = LINE ( 'NONE', #160, #40 ) ;
#160 = CARTESIAN_POINT ( 'NONE',  ( 1.000000000000000000, 1.000000000000000000, -1.000000000000000000 ) ) ;
#161 = DIRECTION ( 'NONE',  ( -0.0000000000000000000, -0.0000000000000000000, -1.000000000000000000 ) ) ;
#162 = CARTESIAN_POINT ( 'NONE',  ( 1.000000000000000000, 1.000000000000000000, -9.184850993605147200E-017 ) ) ;
#163 = DIRECTION ( 'NONE',  ( -9.184850993605147200E-017, 0.0000000000000000000, -1.000000000000000000 ) ) ;
#164 = DIRECTION ( 'NONE',  ( -1.000000000000000000, 0.0000000000000000000, 9.184850993605147200E-017 ) ) ;
#165 = PLANE ( 'NONE',  #199 ) ;
#166 = CARTESIAN_POINT ( 'NONE',  ( 1.000000000000000000, 1.000000000000000000, -1.000000000000000000 ) ) ;
#167 = DIRECTION ( 'NONE',  ( -1.000000000000000000, 0.0000000000000000000, 0.0000000000000000000 ) ) ;
#168 = DIRECTION ( 'NONE',  ( 0.0000000000000000000, 0.0000000000000000000, 1.000000000000000000 ) ) ;
#169 =( LENGTH_UNIT ( ) NAMED_UNIT ( * ) SI_UNIT ( $, .METRE. ) );
#170 =( CONVERSION_BASED_UNIT ( 'INCH', #36 ) LENGTH_UNIT ( ) NAMED_UNIT ( #15 ) );
#171 =( NAMED_UNIT ( * ) PLANE_ANGLE_UNIT ( ) SI_UNIT ( $, .RADIAN. ) );
#172 =( NAMED_UNIT ( * ) SI_UNIT ( $, .STERADIAN. ) SOLID_ANGLE_UNIT ( ) );
#173 = APPLICATION_PROTOCOL_DEFINITION ( 'draft international standard', 'automotive_design', 1998, #111 ) ;
#174 = FILL_AREA_STYLE_COLOUR ( '', #208 ) ;
#175 = FILL_AREA_STYLE ('',( #174 ) ) ;
#176 = SURFACE_STYLE_FILL_AREA ( #175 ) ;
#177 = SURFACE_SIDE_STYLE ('',( #176 ) ) ;
#178 = SURFACE_STYLE_USAGE ( .BOTH. , #177 ) ;
#179 = PRESENTATION_STYLE_ASSIGNMENT (( #178 ) ) ;
#180 =( LENGTH_UNIT ( ) NAMED_UNIT ( * ) SI_UNIT ( $, .METRE. ) );
#181 =( CONVERSION_BASED_UNIT ( 'INCH', #8 ) LENGTH_UNIT ( ) NAMED_UNIT ( #18 ) );
#182 =( NAMED_UNIT ( * ) PLANE_ANGLE_UNIT ( ) SI_UNIT ( $, .RADIAN. ) );
#183 =( NAMED_UNIT ( * ) SI_UNIT ( $, .STERADIAN. ) SOLID_ANGLE_UNIT ( ) );
#184 = CARTESIAN_POINT ( 'NONE',  ( 0.0000000000000000000, 0.0000000000000000000, 0.0000000000000000000 ) ) ;
#185 = DIRECTION ( 'NONE',  ( 0.0000000000000000000, 0.0000000000000000000, 1.000000000000000000 ) ) ;
#186 = DIRECTION ( 'NONE',  ( 1.000000000000000000, 0.0000000000000000000, 0.0000000000000000000 ) ) ;
#187 = SHAPE_DEFINITION_REPRESENTATION ( #19, #22 ) ;
#188 = PRODUCT_CONTEXT ( 'NONE', #111, 'mechanical' ) ;
#189 = APPLICATION_PROTOCOL_DEFINITION ( 'draft international standard', 'automotive_design', 1998, #110 ) ;
#190 = DIRECTION ( 'NONE',  ( 1.000000000000000000, -0.0000000000000000000, 0.0000000000000000000 ) ) ;
#191 = CARTESIAN_POINT ( 'NONE',  ( 0.0000000000000000000, 1.000000000000000000, 0.0000000000000000000 ) ) ;
#192 = PLANE ( 'NONE',  #108 ) ;
#193 = DIRECTION ( 'NONE',  ( 1.000000000000000000, 0.0000000000000000000, -0.0000000000000000000 ) ) ;
#194 = DIRECTION ( 'NONE',  ( 0.0000000000000000000, 0.0000000000000000000, 1.000000000000000000 ) ) ;
#195 = CARTESIAN_POINT ( 'NONE',  ( 0.0000000000000000000, 1.000000000000000000, -1.000000000000000000 ) ) ;
#196 = PLANE ( 'NONE',  #107 ) ;
#197 =( NAMED_UNIT ( * ) SI_UNIT ( $, .STERADIAN. ) SOLID_ANGLE_UNIT ( ) );
#198 = VECTOR ( 'NONE', #146, 39.37007874015748100 ) ;
#199 = AXIS2_PLACEMENT_3D ( 'NONE', #166, #167, #168 ) ;
#200 = VECTOR ( 'NONE', #143, 39.37007874015748100 ) ;
#201 = VECTOR ( 'NONE', #139, 39.37007874015748100 ) ;
#202 = VECTOR ( 'NONE', #129, 39.37007874015748100 ) ;
#203 = VECTOR ( 'NONE', #126, 39.37007874015748100 ) ;
#204 = FACE_OUTER_BOUND ( 'NONE', #64, .T. ) ;
#205 = VECTOR ( 'NONE', #123, 39.37007874015748100 ) ;
#206 = VECTOR ( 'NONE', #119, 39.37007874015748100 ) ;
#207 = AXIS2_PLACEMENT_3D ( 'NONE', #114, #115, #116 ) ;
#208 = COLOUR_RGB ( '',0.5686274509803921400, 0.5686274509803921400, 0.5882352941176470800 ) ;
#209 = COLOUR_RGB ( '',0.5686274509803921400, 0.5686274509803921400, 0.5882352941176470800 ) ;
#210 = ADVANCED_FACE ( 'NONE', ( #204 ), #140, .F. ) ;
#211 = ADVANCED_FACE ( 'NONE', ( #37 ), #165, .F. ) ;
ENDSEC;
END-ISO-10303-21;
