ISO-10303-21;
HEADER;
FILE_DESCRIPTION (( 'STEP AP214' ),
    '1' );
FILE_NAME ('D032A.step',
    '2012-04-20T20:50:07',
    ( '' ),
    ( '' ),
    'SwSTEP 2.0',
    'SolidWorks 2012',
    '' );
FILE_SCHEMA (( 'AUTOMOTIVE_DESIGN' ));
ENDSEC;

DATA;
#1 = MANIFOLD_SOLID_BREP ( 'Boss-Extrude1', #58 ) ;
#2 = PRODUCT_DEFINITION_CONTEXT ( 'detailed design', #54, 'design' ) ;
#3 = PRODUCT_DEFINITION_SHAPE ( 'NONE', 'NONE',  #15 ) ;
#4 = DIMENSIONAL_EXPONENTS ( 1.000000000000000000, 0.0000000000000000000, 0.0000000000000000000, 0.0000000000000000000, 0.0000000000000000000, 0.0000000000000000000, 0.0000000000000000000 ) ;
#5 = PRODUCT ( 'D032A', 'D032A', '', ( #77 ) ) ;
#6 = CIRCLE ( 'NONE', #61, 0.06250000000000000000 ) ;
#7 = AXIS2_PLACEMENT_3D ( 'NONE', #67, #65, #64 ) ;
#8 = LENGTH_MEASURE_WITH_UNIT ( LENGTH_MEASURE( 0.02539999999999999900 ), #76 );
#9 = PRODUCT_DEFINITION_FORMATION_WITH_SPECIFIED_SOURCE ( 'ANY', '', #5, .NOT_KNOWN. ) ;
#10 = UNCERTAINTY_MEASURE_WITH_UNIT (LENGTH_MEASURE( 1.000000000000000100E-005 ), #83, 'distance_accuracy_value', 'NONE');
#11 = UNCERTAINTY_MEASURE_WITH_UNIT (LENGTH_MEASURE( 1.000000000000000100E-005 ), #130, 'distance_accuracy_value', 'NONE');
#12 = UNCERTAINTY_MEASURE_WITH_UNIT (LENGTH_MEASURE( 1.000000000000000100E-005 ), #70, 'distance_accuracy_value', 'NONE');
#13 = ADVANCED_BREP_SHAPE_REPRESENTATION ( 'D032A', ( #1, #7 ), #51 ) ;
#14 = DIMENSIONAL_EXPONENTS ( 1.000000000000000000, 0.0000000000000000000, 0.0000000000000000000, 0.0000000000000000000, 0.0000000000000000000, 0.0000000000000000000, 0.0000000000000000000 ) ;
#15 = PRODUCT_DEFINITION ( 'UNKNOWN', '', #9, #2 ) ;
#16 = EDGE_CURVE ( 'NONE', #145, #146, #6, .T. ) ;
#17 = PRODUCT_RELATED_PRODUCT_CATEGORY ( 'part', '', ( #5 ) ) ;
#18 = EDGE_CURVE ( 'NONE', #143, #144, #22, .T. ) ;
#19 = COLOUR_RGB ( '',0.5686274509803921400, 0.5686274509803921400, 0.5882352941176470800 ) ;
#20 = CIRCLE ( 'NONE', #33, 0.06250000000000000000 ) ;
#21 = CIRCLE ( 'NONE', #37, 0.06250000000000000000 ) ;
#22 = CIRCLE ( 'NONE', #34, 0.06250000000000000000 ) ;
#23 = EDGE_CURVE ( 'NONE', #143, #145, #115, .T. ) ;
#24 = ADVANCED_FACE ( 'NONE', ( #59 ), #36, .T. ) ;
#25 = COLOUR_RGB ( '',0.5686274509803921400, 0.5686274509803921400, 0.5882352941176470800 ) ;
#26 = EDGE_CURVE ( 'NONE', #144, #146, #110, .T. ) ;
#27 = EDGE_CURVE ( 'NONE', #144, #143, #20, .T. ) ;
#28 = EDGE_CURVE ( 'NONE', #146, #145, #21, .T. ) ;
#29 = ADVANCED_FACE ( 'NONE', ( #38 ), #42, .T. ) ;
#30 = ADVANCED_FACE ( 'NONE', ( #41 ), #98, .F. ) ;
#31 = ADVANCED_FACE ( 'NONE', ( #43 ), #94, .T. ) ;
#32 = AXIS2_PLACEMENT_3D ( 'NONE', #116, #112, #111 ) ;
#33 = AXIS2_PLACEMENT_3D ( 'NONE', #107, #106, #105 ) ;
#34 = AXIS2_PLACEMENT_3D ( 'NONE', #119, #118, #117 ) ;
#35 = VECTOR ( 'NONE', #113, 39.37007874015748100 ) ;
#36 = CYLINDRICAL_SURFACE ( 'NONE', #32, 0.06250000000000000000 ) ;
#37 = AXIS2_PLACEMENT_3D ( 'NONE', #104, #103, #102 ) ;
#38 = FACE_OUTER_BOUND ( 'NONE', #139, .T. ) ;
#39 = VECTOR ( 'NONE', #108, 39.37007874015748100 ) ;
#40 = AXIS2_PLACEMENT_3D ( 'NONE', #101, #100, #99 ) ;
#41 = FACE_OUTER_BOUND ( 'NONE', #140, .T. ) ;
#42 = CYLINDRICAL_SURFACE ( 'NONE', #40, 0.06250000000000000000 ) ;
#43 = FACE_OUTER_BOUND ( 'NONE', #141, .T. ) ;
#44 = LENGTH_MEASURE_WITH_UNIT ( LENGTH_MEASURE( 0.02539999999999999900 ), #84 );
#45 = AXIS2_PLACEMENT_3D ( 'NONE', #97, #96, #95 ) ;
#46 = AXIS2_PLACEMENT_3D ( 'NONE', #93, #92, #91 ) ;
#47 = STYLED_ITEM ( 'NONE', ( #71 ), #13 ) ;
#48 = PRESENTATION_LAYER_ASSIGNMENT (  '', '', ( #47 ) ) ;
#49 = MECHANICAL_DESIGN_GEOMETRIC_PRESENTATION_REPRESENTATION (  '', ( #47 ), #52 ) ;
#50 =( GEOMETRIC_REPRESENTATION_CONTEXT ( 3 ) GLOBAL_UNCERTAINTY_ASSIGNED_CONTEXT ( ( #11 ) ) GLOBAL_UNIT_ASSIGNED_CONTEXT ( ( #130, #128, #126 ) ) REPRESENTATION_CONTEXT ( 'NONE', 'WORKASPACE' ) );
#51 =( GEOMETRIC_REPRESENTATION_CONTEXT ( 3 ) GLOBAL_UNCERTAINTY_ASSIGNED_CONTEXT ( ( #10 ) ) GLOBAL_UNIT_ASSIGNED_CONTEXT ( ( #83, #82, #79 ) ) REPRESENTATION_CONTEXT ( 'NONE', 'WORKASPACE' ) );
#52 =( GEOMETRIC_REPRESENTATION_CONTEXT ( 3 ) GLOBAL_UNCERTAINTY_ASSIGNED_CONTEXT ( ( #12 ) ) GLOBAL_UNIT_ASSIGNED_CONTEXT ( ( #70, #69, #68 ) ) REPRESENTATION_CONTEXT ( 'NONE', 'WORKASPACE' ) );
#53 = APPLICATION_CONTEXT ( 'automotive_design' ) ;
#54 = APPLICATION_CONTEXT ( 'automotive_design' ) ;
#55 = DIMENSIONAL_EXPONENTS ( 1.000000000000000000, 0.0000000000000000000, 0.0000000000000000000, 0.0000000000000000000, 0.0000000000000000000, 0.0000000000000000000, 0.0000000000000000000 ) ;
#56 = MECHANICAL_DESIGN_GEOMETRIC_PRESENTATION_REPRESENTATION (  '', ( #57 ), #50 ) ;
#57 = STYLED_ITEM ( 'NONE', ( #132 ), #1 ) ;
#58 = CLOSED_SHELL ( 'NONE', ( #29, #24, #31, #30 ) ) ;
#59 = FACE_OUTER_BOUND ( 'NONE', #138, .T. ) ;
#60 = PRESENTATION_LAYER_ASSIGNMENT (  '', '', ( #57 ) ) ;
#61 = AXIS2_PLACEMENT_3D ( 'NONE', #124, #125, #120 ) ;
#62 = LENGTH_MEASURE_WITH_UNIT ( LENGTH_MEASURE( 0.02539999999999999900 ), #131 );
#63 = APPLICATION_PROTOCOL_DEFINITION ( 'draft international standard', 'automotive_design', 1998, #54 ) ;
#64 = DIRECTION ( 'NONE',  ( 1.000000000000000000, 0.0000000000000000000, 0.0000000000000000000 ) ) ;
#65 = DIRECTION ( 'NONE',  ( 0.0000000000000000000, 0.0000000000000000000, 1.000000000000000000 ) ) ;
#66 = SHAPE_DEFINITION_REPRESENTATION ( #3, #13 ) ;
#67 = CARTESIAN_POINT ( 'NONE',  ( 0.0000000000000000000, 0.0000000000000000000, 0.0000000000000000000 ) ) ;
#68 =( NAMED_UNIT ( * ) SI_UNIT ( $, .STERADIAN. ) SOLID_ANGLE_UNIT ( ) );
#69 =( NAMED_UNIT ( * ) PLANE_ANGLE_UNIT ( ) SI_UNIT ( $, .RADIAN. ) );
#70 =( CONVERSION_BASED_UNIT ( 'INCH', #8 ) LENGTH_UNIT ( ) NAMED_UNIT ( #4 ) );
#71 = PRESENTATION_STYLE_ASSIGNMENT (( #129 ) ) ;
#72 = ORIENTED_EDGE ( 'NONE', *, *, #23, .T. ) ;
#73 = ORIENTED_EDGE ( 'NONE', *, *, #26, .F. ) ;
#74 = SURFACE_STYLE_FILL_AREA ( #80 ) ;
#75 = ORIENTED_EDGE ( 'NONE', *, *, #23, .F. ) ;
#76 =( LENGTH_UNIT ( ) NAMED_UNIT ( * ) SI_UNIT ( $, .METRE. ) );
#77 = PRODUCT_CONTEXT ( 'NONE', #53, 'mechanical' ) ;
#78 = APPLICATION_PROTOCOL_DEFINITION ( 'draft international standard', 'automotive_design', 1998, #53 ) ;
#79 =( NAMED_UNIT ( * ) SI_UNIT ( $, .STERADIAN. ) SOLID_ANGLE_UNIT ( ) );
#80 = FILL_AREA_STYLE ('',( #81 ) ) ;
#81 = FILL_AREA_STYLE_COLOUR ( '', #19 ) ;
#82 =( NAMED_UNIT ( * ) PLANE_ANGLE_UNIT ( ) SI_UNIT ( $, .RADIAN. ) );
#83 =( CONVERSION_BASED_UNIT ( 'INCH', #44 ) LENGTH_UNIT ( ) NAMED_UNIT ( #55 ) );
#84 =( LENGTH_UNIT ( ) NAMED_UNIT ( * ) SI_UNIT ( $, .METRE. ) );
#85 = CARTESIAN_POINT ( 'NONE',  ( 7.654042494670957500E-018, 0.0000000000000000000, 0.06250000000000000000 ) ) ;
#86 = CARTESIAN_POINT ( 'NONE',  ( 0.0000000000000000000, 0.0000000000000000000, -0.06250000000000000000 ) ) ;
#87 = CARTESIAN_POINT ( 'NONE',  ( 7.654042494670957500E-018, 0.03125000000000000000, 0.06250000000000000000 ) ) ;
#88 = ORIENTED_EDGE ( 'NONE', *, *, #26, .T. ) ;
#89 = ORIENTED_EDGE ( 'NONE', *, *, #28, .T. ) ;
#90 = CARTESIAN_POINT ( 'NONE',  ( 0.0000000000000000000, 0.03125000000000000000, -0.06250000000000000000 ) ) ;
#91 = DIRECTION ( 'NONE',  ( 0.0000000000000000000, -0.0000000000000000000, 1.000000000000000000 ) ) ;
#92 = DIRECTION ( 'NONE',  ( 0.0000000000000000000, 1.000000000000000000, 0.0000000000000000000 ) ) ;
#93 = CARTESIAN_POINT ( 'NONE',  ( 0.0000000000000000000, 0.03125000000000000000, 0.0000000000000000000 ) ) ;
#94 = PLANE ( 'NONE',  #46 ) ;
#95 = DIRECTION ( 'NONE',  ( 0.0000000000000000000, -0.0000000000000000000, 1.000000000000000000 ) ) ;
#96 = DIRECTION ( 'NONE',  ( 0.0000000000000000000, 1.000000000000000000, 0.0000000000000000000 ) ) ;
#97 = CARTESIAN_POINT ( 'NONE',  ( 0.0000000000000000000, 0.0000000000000000000, 0.0000000000000000000 ) ) ;
#98 = PLANE ( 'NONE',  #45 ) ;
#99 = DIRECTION ( 'NONE',  ( 0.0000000000000000000, 0.0000000000000000000, -1.000000000000000000 ) ) ;
#100 = DIRECTION ( 'NONE',  ( -0.0000000000000000000, -1.000000000000000000, -0.0000000000000000000 ) ) ;
#101 = CARTESIAN_POINT ( 'NONE',  ( 0.0000000000000000000, 0.03125000000000000000, 0.0000000000000000000 ) ) ;
#102 = DIRECTION ( 'NONE',  ( 0.0000000000000000000, 0.0000000000000000000, 1.000000000000000000 ) ) ;
#103 = DIRECTION ( 'NONE',  ( 0.0000000000000000000, 1.000000000000000000, 0.0000000000000000000 ) ) ;
#104 = CARTESIAN_POINT ( 'NONE',  ( 0.0000000000000000000, 0.0000000000000000000, 0.0000000000000000000 ) ) ;
#105 = DIRECTION ( 'NONE',  ( 0.0000000000000000000, 0.0000000000000000000, 1.000000000000000000 ) ) ;
#106 = DIRECTION ( 'NONE',  ( 0.0000000000000000000, 1.000000000000000000, 0.0000000000000000000 ) ) ;
#107 = CARTESIAN_POINT ( 'NONE',  ( 0.0000000000000000000, 0.03125000000000000000, 0.0000000000000000000 ) ) ;
#108 = DIRECTION ( 'NONE',  ( -0.0000000000000000000, -1.000000000000000000, -0.0000000000000000000 ) ) ;
#109 = CARTESIAN_POINT ( 'NONE',  ( 7.654042494670957500E-018, 0.03125000000000000000, 0.06250000000000000000 ) ) ;
#110 = LINE ( 'NONE', #109, #39 ) ;
#111 = DIRECTION ( 'NONE',  ( 0.0000000000000000000, 0.0000000000000000000, -1.000000000000000000 ) ) ;
#112 = DIRECTION ( 'NONE',  ( -0.0000000000000000000, -1.000000000000000000, -0.0000000000000000000 ) ) ;
#113 = DIRECTION ( 'NONE',  ( -0.0000000000000000000, -1.000000000000000000, -0.0000000000000000000 ) ) ;
#114 = CARTESIAN_POINT ( 'NONE',  ( 0.0000000000000000000, 0.03125000000000000000, -0.06250000000000000000 ) ) ;
#115 = LINE ( 'NONE', #114, #35 ) ;
#116 = CARTESIAN_POINT ( 'NONE',  ( 0.0000000000000000000, 0.03125000000000000000, 0.0000000000000000000 ) ) ;
#117 = DIRECTION ( 'NONE',  ( 0.0000000000000000000, 0.0000000000000000000, 1.000000000000000000 ) ) ;
#118 = DIRECTION ( 'NONE',  ( 0.0000000000000000000, 1.000000000000000000, 0.0000000000000000000 ) ) ;
#119 = CARTESIAN_POINT ( 'NONE',  ( 0.0000000000000000000, 0.03125000000000000000, 0.0000000000000000000 ) ) ;
#120 = DIRECTION ( 'NONE',  ( 0.0000000000000000000, 0.0000000000000000000, 1.000000000000000000 ) ) ;
#121 = ORIENTED_EDGE ( 'NONE', *, *, #18, .T. ) ;
#122 = ORIENTED_EDGE ( 'NONE', *, *, #16, .T. ) ;
#123 = ORIENTED_EDGE ( 'NONE', *, *, #18, .F. ) ;
#124 = CARTESIAN_POINT ( 'NONE',  ( 0.0000000000000000000, 0.0000000000000000000, 0.0000000000000000000 ) ) ;
#125 = DIRECTION ( 'NONE',  ( 0.0000000000000000000, 1.000000000000000000, 0.0000000000000000000 ) ) ;
#126 =( NAMED_UNIT ( * ) SI_UNIT ( $, .STERADIAN. ) SOLID_ANGLE_UNIT ( ) );
#127 = SURFACE_SIDE_STYLE ('',( #74 ) ) ;
#128 =( NAMED_UNIT ( * ) PLANE_ANGLE_UNIT ( ) SI_UNIT ( $, .RADIAN. ) );
#129 = SURFACE_STYLE_USAGE ( .BOTH. , #127 ) ;
#130 =( CONVERSION_BASED_UNIT ( 'INCH', #62 ) LENGTH_UNIT ( ) NAMED_UNIT ( #14 ) );
#131 =( LENGTH_UNIT ( ) NAMED_UNIT ( * ) SI_UNIT ( $, .METRE. ) );
#132 = PRESENTATION_STYLE_ASSIGNMENT (( #133 ) ) ;
#133 = SURFACE_STYLE_USAGE ( .BOTH. , #134 ) ;
#134 = SURFACE_SIDE_STYLE ('',( #135 ) ) ;
#135 = SURFACE_STYLE_FILL_AREA ( #136 ) ;
#136 = FILL_AREA_STYLE ('',( #137 ) ) ;
#137 = FILL_AREA_STYLE_COLOUR ( '', #25 ) ;
#138 = EDGE_LOOP ( 'NONE', ( #73, #123, #72, #122 ) ) ;
#139 = EDGE_LOOP ( 'NONE', ( #142, #88, #89, #75 ) ) ;
#140 = EDGE_LOOP ( 'NONE', ( #148, #147 ) ) ;
#141 = EDGE_LOOP ( 'NONE', ( #121, #149 ) ) ;
#142 = ORIENTED_EDGE ( 'NONE', *, *, #27, .F. ) ;
#143 = VERTEX_POINT ( 'NONE', #90 ) ;
#144 = VERTEX_POINT ( 'NONE', #87 ) ;
#145 = VERTEX_POINT ( 'NONE', #86 ) ;
#146 = VERTEX_POINT ( 'NONE', #85 ) ;
#147 = ORIENTED_EDGE ( 'NONE', *, *, #28, .F. ) ;
#148 = ORIENTED_EDGE ( 'NONE', *, *, #16, .F. ) ;
#149 = ORIENTED_EDGE ( 'NONE', *, *, #27, .T. ) ;
ENDSEC;
END-ISO-10303-21;
