ISO-10303-21;
HEADER;
FILE_DESCRIPTION (( 'STEP AP214' ),
    '1' );
FILE_NAME ('D063CN52.step',
    '2012-04-20T20:51:51',
    ( '' ),
    ( '' ),
    'SwSTEP 2.0',
    'SolidWorks 2012',
    '' );
FILE_SCHEMA (( 'AUTOMOTIVE_DESIGN' ));
ENDSEC;

DATA;
#1 =( CONVERSION_BASED_UNIT ( 'INCH', #125 ) LENGTH_UNIT ( ) NAMED_UNIT ( #113 ) );
#2 =( NAMED_UNIT ( * ) PLANE_ANGLE_UNIT ( ) SI_UNIT ( $, .RADIAN. ) );
#3 =( NAMED_UNIT ( * ) SI_UNIT ( $, .STERADIAN. ) SOLID_ANGLE_UNIT ( ) );
#4 = CARTESIAN_POINT ( 'NONE',  ( 0.0000000000000000000, 0.0000000000000000000, 0.0000000000000000000 ) ) ;
#5 = DIRECTION ( 'NONE',  ( 0.0000000000000000000, 0.0000000000000000000, 1.000000000000000000 ) ) ;
#6 = DIRECTION ( 'NONE',  ( 1.000000000000000000, 0.0000000000000000000, 0.0000000000000000000 ) ) ;
#7 = PRODUCT_DEFINITION_CONTEXT ( 'detailed design', #72, 'design' ) ;
#8 = EDGE_LOOP ( 'NONE', ( #96, #98, #97, #99 ) ) ;
#9 = EDGE_LOOP ( 'NONE', ( #109, #110, #104, #73 ) ) ;
#10 =( NAMED_UNIT ( * ) SI_UNIT ( $, .STERADIAN. ) SOLID_ANGLE_UNIT ( ) );
#11 = SHAPE_DEFINITION_REPRESENTATION ( #139, #92 ) ;
#12 = FILL_AREA_STYLE_COLOUR ( '', #69 ) ;
#13 = FILL_AREA_STYLE ('',( #12 ) ) ;
#14 = SURFACE_STYLE_FILL_AREA ( #13 ) ;
#15 = SURFACE_SIDE_STYLE ('',( #14 ) ) ;
#16 = SURFACE_STYLE_USAGE ( .BOTH. , #15 ) ;
#17 = PRESENTATION_STYLE_ASSIGNMENT (( #16 ) ) ;
#18 =( LENGTH_UNIT ( ) NAMED_UNIT ( * ) SI_UNIT ( $, .METRE. ) );
#19 = DIRECTION ( 'NONE',  ( -0.0000000000000000000, -1.000000000000000000, -0.0000000000000000000 ) ) ;
#20 = DIRECTION ( 'NONE',  ( 0.0000000000000000000, 1.000000000000000000, 0.0000000000000000000 ) ) ;
#21 = DIRECTION ( 'NONE',  ( 0.0000000000000000000, 0.0000000000000000000, 1.000000000000000000 ) ) ;
#22 = CARTESIAN_POINT ( 'NONE',  ( 0.0000000000000000000, 0.0000000000000000000, 0.0000000000000000000 ) ) ;
#23 = DIRECTION ( 'NONE',  ( 0.0000000000000000000, 1.000000000000000000, 0.0000000000000000000 ) ) ;
#24 = DIRECTION ( 'NONE',  ( 0.0000000000000000000, 0.0000000000000000000, 1.000000000000000000 ) ) ;
#25 = CARTESIAN_POINT ( 'NONE',  ( 0.0000000000000000000, 0.06250000000000000000, 0.0000000000000000000 ) ) ;
#26 = DIRECTION ( 'NONE',  ( 0.0000000000000000000, 1.000000000000000000, 0.0000000000000000000 ) ) ;
#27 = DIRECTION ( 'NONE',  ( 0.0000000000000000000, 0.0000000000000000000, 1.000000000000000000 ) ) ;
#28 = PLANE ( 'NONE',  #132 ) ;
#29 = LINE ( 'NONE', #30, #135 ) ;
#30 = CARTESIAN_POINT ( 'NONE',  ( 2.296212748401287700E-017, 0.06250000000000000000, 0.1875000000000000300 ) ) ;
#31 = DIRECTION ( 'NONE',  ( -0.0000000000000000000, -1.000000000000000000, -0.0000000000000000000 ) ) ;
#32 = FILL_AREA_STYLE_COLOUR ( '', #67 ) ;
#33 = FILL_AREA_STYLE ('',( #32 ) ) ;
#34 = SURFACE_STYLE_FILL_AREA ( #33 ) ;
#35 = SURFACE_SIDE_STYLE ('',( #34 ) ) ;
#36 = ADVANCED_FACE ( 'NONE', ( #145 ), #74, .T. ) ;
#37 = ADVANCED_FACE ( 'NONE', ( #143 ), #148, .T. ) ;
#38 = ADVANCED_FACE ( 'NONE', ( #147 ), #131, .T. ) ;
#39 = EDGE_CURVE ( 'NONE', #107, #108, #45, .T. ) ;
#40 = EDGE_CURVE ( 'NONE', #106, #108, #88, .T. ) ;
#41 = EDGE_CURVE ( 'NONE', #106, #105, #46, .T. ) ;
#42 = EDGE_CURVE ( 'NONE', #108, #107, #47, .T. ) ;
#43 = EDGE_CURVE ( 'NONE', #105, #106, #48, .T. ) ;
#44 = EDGE_CURVE ( 'NONE', #105, #107, #29, .T. ) ;
#45 = CIRCLE ( 'NONE', #141, 0.1875000000000000300 ) ;
#46 = CIRCLE ( 'NONE', #130, 0.1875000000000000300 ) ;
#47 = CIRCLE ( 'NONE', #134, 0.1875000000000000300 ) ;
#48 = CIRCLE ( 'NONE', #133, 0.1875000000000000300 ) ;
#49 = MANIFOLD_SOLID_BREP ( 'Boss-Extrude1', #144 ) ;
#50 = SURFACE_STYLE_USAGE ( .BOTH. , #35 ) ;
#51 = PRESENTATION_STYLE_ASSIGNMENT (( #50 ) ) ;
#52 =( LENGTH_UNIT ( ) NAMED_UNIT ( * ) SI_UNIT ( $, .METRE. ) );
#53 =( CONVERSION_BASED_UNIT ( 'INCH', #149 ) LENGTH_UNIT ( ) NAMED_UNIT ( #112 ) );
#54 =( NAMED_UNIT ( * ) PLANE_ANGLE_UNIT ( ) SI_UNIT ( $, .RADIAN. ) );
#55 =( NAMED_UNIT ( * ) SI_UNIT ( $, .STERADIAN. ) SOLID_ANGLE_UNIT ( ) );
#56 = CARTESIAN_POINT ( 'NONE',  ( 0.0000000000000000000, 0.0000000000000000000, 0.0000000000000000000 ) ) ;
#57 = DIRECTION ( 'NONE',  ( 0.0000000000000000000, 1.000000000000000000, 0.0000000000000000000 ) ) ;
#58 = DIRECTION ( 'NONE',  ( 0.0000000000000000000, -0.0000000000000000000, 1.000000000000000000 ) ) ;
#59 = CARTESIAN_POINT ( 'NONE',  ( 2.296212748401287700E-017, 0.06250000000000000000, 0.1875000000000000300 ) ) ;
#60 = CARTESIAN_POINT ( 'NONE',  ( 0.0000000000000000000, 0.06250000000000000000, -0.1875000000000000300 ) ) ;
#61 = CARTESIAN_POINT ( 'NONE',  ( 2.296212748401287700E-017, 0.0000000000000000000, 0.1875000000000000300 ) ) ;
#62 = CARTESIAN_POINT ( 'NONE',  ( 0.0000000000000000000, 0.0000000000000000000, -0.1875000000000000300 ) ) ;
#63 =( LENGTH_UNIT ( ) NAMED_UNIT ( * ) SI_UNIT ( $, .METRE. ) );
#64 =( CONVERSION_BASED_UNIT ( 'INCH', #121 ) LENGTH_UNIT ( ) NAMED_UNIT ( #111 ) );
#65 =( NAMED_UNIT ( * ) PLANE_ANGLE_UNIT ( ) SI_UNIT ( $, .RADIAN. ) );
#66 = ADVANCED_FACE ( 'NONE', ( #137 ), #28, .F. ) ;
#67 = COLOUR_RGB ( '',0.5686274509803921400, 0.5686274509803921400, 0.5882352941176470800 ) ;
#68 = PRODUCT_DEFINITION ( 'UNKNOWN', '', #140, #7 ) ;
#69 = COLOUR_RGB ( '',0.5686274509803921400, 0.5686274509803921400, 0.5882352941176470800 ) ;
#70 = PRODUCT_RELATED_PRODUCT_CATEGORY ( 'part', '', ( #114 ) ) ;
#71 = APPLICATION_CONTEXT ( 'automotive_design' ) ;
#72 = APPLICATION_CONTEXT ( 'automotive_design' ) ;
#73 = ORIENTED_EDGE ( 'NONE', *, *, #40, .F. ) ;
#74 = PLANE ( 'NONE',  #142 ) ;
#75 = CARTESIAN_POINT ( 'NONE',  ( 0.0000000000000000000, 0.06250000000000000000, 0.0000000000000000000 ) ) ;
#76 = DIRECTION ( 'NONE',  ( 0.0000000000000000000, 1.000000000000000000, 0.0000000000000000000 ) ) ;
#77 = DIRECTION ( 'NONE',  ( 0.0000000000000000000, -0.0000000000000000000, 1.000000000000000000 ) ) ;
#78 = CARTESIAN_POINT ( 'NONE',  ( 0.0000000000000000000, 0.06250000000000000000, 0.0000000000000000000 ) ) ;
#79 = DIRECTION ( 'NONE',  ( -0.0000000000000000000, -1.000000000000000000, -0.0000000000000000000 ) ) ;
#80 = DIRECTION ( 'NONE',  ( 0.0000000000000000000, 0.0000000000000000000, -1.000000000000000000 ) ) ;
#81 = CARTESIAN_POINT ( 'NONE',  ( 0.0000000000000000000, 0.06250000000000000000, 0.0000000000000000000 ) ) ;
#82 = DIRECTION ( 'NONE',  ( -0.0000000000000000000, -1.000000000000000000, -0.0000000000000000000 ) ) ;
#83 = DIRECTION ( 'NONE',  ( 0.0000000000000000000, 0.0000000000000000000, -1.000000000000000000 ) ) ;
#84 = CARTESIAN_POINT ( 'NONE',  ( 0.0000000000000000000, 0.0000000000000000000, 0.0000000000000000000 ) ) ;
#85 = DIRECTION ( 'NONE',  ( 0.0000000000000000000, 1.000000000000000000, 0.0000000000000000000 ) ) ;
#86 = DIRECTION ( 'NONE',  ( 0.0000000000000000000, 0.0000000000000000000, 1.000000000000000000 ) ) ;
#87 = CARTESIAN_POINT ( 'NONE',  ( 0.0000000000000000000, 0.06250000000000000000, 0.0000000000000000000 ) ) ;
#88 = LINE ( 'NONE', #89, #127 ) ;
#89 = CARTESIAN_POINT ( 'NONE',  ( 0.0000000000000000000, 0.06250000000000000000, -0.1875000000000000300 ) ) ;
#90 = UNCERTAINTY_MEASURE_WITH_UNIT (LENGTH_MEASURE( 1.000000000000000100E-005 ), #64, 'distance_accuracy_value', 'NONE');
#91 = UNCERTAINTY_MEASURE_WITH_UNIT (LENGTH_MEASURE( 1.000000000000000100E-005 ), #53, 'distance_accuracy_value', 'NONE');
#92 = ADVANCED_BREP_SHAPE_REPRESENTATION ( 'D063CN52', ( #49, #126 ), #119 ) ;
#93 = UNCERTAINTY_MEASURE_WITH_UNIT (LENGTH_MEASURE( 1.000000000000000100E-005 ), #1, 'distance_accuracy_value', 'NONE');
#94 = EDGE_LOOP ( 'NONE', ( #100, #101 ) ) ;
#95 = EDGE_LOOP ( 'NONE', ( #102, #103 ) ) ;
#96 = ORIENTED_EDGE ( 'NONE', *, *, #44, .F. ) ;
#97 = ORIENTED_EDGE ( 'NONE', *, *, #40, .T. ) ;
#98 = ORIENTED_EDGE ( 'NONE', *, *, #41, .F. ) ;
#99 = ORIENTED_EDGE ( 'NONE', *, *, #42, .T. ) ;
#100 = ORIENTED_EDGE ( 'NONE', *, *, #41, .T. ) ;
#101 = ORIENTED_EDGE ( 'NONE', *, *, #43, .T. ) ;
#102 = ORIENTED_EDGE ( 'NONE', *, *, #42, .F. ) ;
#103 = ORIENTED_EDGE ( 'NONE', *, *, #39, .F. ) ;
#104 = ORIENTED_EDGE ( 'NONE', *, *, #39, .T. ) ;
#105 = VERTEX_POINT ( 'NONE', #59 ) ;
#106 = VERTEX_POINT ( 'NONE', #60 ) ;
#107 = VERTEX_POINT ( 'NONE', #61 ) ;
#108 = VERTEX_POINT ( 'NONE', #62 ) ;
#109 = ORIENTED_EDGE ( 'NONE', *, *, #43, .F. ) ;
#110 = ORIENTED_EDGE ( 'NONE', *, *, #44, .T. ) ;
#111 = DIMENSIONAL_EXPONENTS ( 1.000000000000000000, 0.0000000000000000000, 0.0000000000000000000, 0.0000000000000000000, 0.0000000000000000000, 0.0000000000000000000, 0.0000000000000000000 ) ;
#112 = DIMENSIONAL_EXPONENTS ( 1.000000000000000000, 0.0000000000000000000, 0.0000000000000000000, 0.0000000000000000000, 0.0000000000000000000, 0.0000000000000000000, 0.0000000000000000000 ) ;
#113 = DIMENSIONAL_EXPONENTS ( 1.000000000000000000, 0.0000000000000000000, 0.0000000000000000000, 0.0000000000000000000, 0.0000000000000000000, 0.0000000000000000000, 0.0000000000000000000 ) ;
#114 = PRODUCT ( 'D063CN52', 'D063CN52', '', ( #116 ) ) ;
#115 = APPLICATION_PROTOCOL_DEFINITION ( 'draft international standard', 'automotive_design', 1998, #71 ) ;
#116 = PRODUCT_CONTEXT ( 'NONE', #71, 'mechanical' ) ;
#117 = APPLICATION_PROTOCOL_DEFINITION ( 'draft international standard', 'automotive_design', 1998, #72 ) ;
#118 =( GEOMETRIC_REPRESENTATION_CONTEXT ( 3 ) GLOBAL_UNCERTAINTY_ASSIGNED_CONTEXT ( ( #91 ) ) GLOBAL_UNIT_ASSIGNED_CONTEXT ( ( #53, #54, #55 ) ) REPRESENTATION_CONTEXT ( 'NONE', 'WORKASPACE' ) );
#119 =( GEOMETRIC_REPRESENTATION_CONTEXT ( 3 ) GLOBAL_UNCERTAINTY_ASSIGNED_CONTEXT ( ( #90 ) ) GLOBAL_UNIT_ASSIGNED_CONTEXT ( ( #64, #65, #10 ) ) REPRESENTATION_CONTEXT ( 'NONE', 'WORKASPACE' ) );
#120 =( GEOMETRIC_REPRESENTATION_CONTEXT ( 3 ) GLOBAL_UNCERTAINTY_ASSIGNED_CONTEXT ( ( #93 ) ) GLOBAL_UNIT_ASSIGNED_CONTEXT ( ( #1, #2, #3 ) ) REPRESENTATION_CONTEXT ( 'NONE', 'WORKASPACE' ) );
#121 = LENGTH_MEASURE_WITH_UNIT ( LENGTH_MEASURE( 0.02539999999999999900 ), #63 );
#122 = STYLED_ITEM ( 'NONE', ( #17 ), #92 ) ;
#123 = PRESENTATION_LAYER_ASSIGNMENT (  '', '', ( #122 ) ) ;
#124 = MECHANICAL_DESIGN_GEOMETRIC_PRESENTATION_REPRESENTATION (  '', ( #122 ), #120 ) ;
#125 = LENGTH_MEASURE_WITH_UNIT ( LENGTH_MEASURE( 0.02539999999999999900 ), #18 );
#126 = AXIS2_PLACEMENT_3D ( 'NONE', #4, #5, #6 ) ;
#127 = VECTOR ( 'NONE', #19, 39.37007874015748100 ) ;
#128 = AXIS2_PLACEMENT_3D ( 'NONE', #81, #82, #83 ) ;
#129 = STYLED_ITEM ( 'NONE', ( #51 ), #49 ) ;
#130 = AXIS2_PLACEMENT_3D ( 'NONE', #87, #20, #21 ) ;
#131 = CYLINDRICAL_SURFACE ( 'NONE', #128, 0.1875000000000000300 ) ;
#132 = AXIS2_PLACEMENT_3D ( 'NONE', #56, #57, #58 ) ;
#133 = AXIS2_PLACEMENT_3D ( 'NONE', #25, #26, #27 ) ;
#134 = AXIS2_PLACEMENT_3D ( 'NONE', #22, #23, #24 ) ;
#135 = VECTOR ( 'NONE', #31, 39.37007874015748100 ) ;
#136 = PRESENTATION_LAYER_ASSIGNMENT (  '', '', ( #129 ) ) ;
#137 = FACE_OUTER_BOUND ( 'NONE', #95, .T. ) ;
#138 = MECHANICAL_DESIGN_GEOMETRIC_PRESENTATION_REPRESENTATION (  '', ( #129 ), #118 ) ;
#139 = PRODUCT_DEFINITION_SHAPE ( 'NONE', 'NONE',  #68 ) ;
#140 = PRODUCT_DEFINITION_FORMATION_WITH_SPECIFIED_SOURCE ( 'ANY', '', #114, .NOT_KNOWN. ) ;
#141 = AXIS2_PLACEMENT_3D ( 'NONE', #84, #85, #86 ) ;
#142 = AXIS2_PLACEMENT_3D ( 'NONE', #75, #76, #77 ) ;
#143 = FACE_OUTER_BOUND ( 'NONE', #8, .T. ) ;
#144 = CLOSED_SHELL ( 'NONE', ( #38, #37, #36, #66 ) ) ;
#145 = FACE_OUTER_BOUND ( 'NONE', #94, .T. ) ;
#146 = AXIS2_PLACEMENT_3D ( 'NONE', #78, #79, #80 ) ;
#147 = FACE_OUTER_BOUND ( 'NONE', #9, .T. ) ;
#148 = CYLINDRICAL_SURFACE ( 'NONE', #146, 0.1875000000000000300 ) ;
#149 = LENGTH_MEASURE_WITH_UNIT ( LENGTH_MEASURE( 0.02539999999999999900 ), #52 );
ENDSEC;
END-ISO-10303-21;
