ISO-10303-21;
HEADER;
FILE_DESCRIPTION (( 'STEP AP214' ),
    '1' );
FILE_NAME ('D063F.step',
    '2012-04-20T20:52:05',
    ( '' ),
    ( '' ),
    'SwSTEP 2.0',
    'SolidWorks 2012',
    '' );
FILE_SCHEMA (( 'AUTOMOTIVE_DESIGN' ));
ENDSEC;

DATA;
#1 = ADVANCED_BREP_SHAPE_REPRESENTATION ( 'D063F', ( #75, #137 ), #148 ) ;
#2 = UNCERTAINTY_MEASURE_WITH_UNIT (LENGTH_MEASURE( 1.000000000000000100E-005 ), #32, 'distance_accuracy_value', 'NONE');
#3 = UNCERTAINTY_MEASURE_WITH_UNIT (LENGTH_MEASURE( 1.000000000000000100E-005 ), #63, 'distance_accuracy_value', 'NONE');
#4 = UNCERTAINTY_MEASURE_WITH_UNIT (LENGTH_MEASURE( 1.000000000000000100E-005 ), #36, 'distance_accuracy_value', 'NONE');
#5 = EDGE_LOOP ( 'NONE', ( #17, #19, #18, #20 ) ) ;
#6 = EDGE_LOOP ( 'NONE', ( #13, #15, #14, #16 ) ) ;
#7 = EDGE_LOOP ( 'NONE', ( #21, #22 ) ) ;
#8 = EDGE_LOOP ( 'NONE', ( #79, #80 ) ) ;
#9 = VERTEX_POINT ( 'NONE', #81 ) ;
#10 = VERTEX_POINT ( 'NONE', #82 ) ;
#11 = VERTEX_POINT ( 'NONE', #83 ) ;
#12 = VERTEX_POINT ( 'NONE', #84 ) ;
#13 = ORIENTED_EDGE ( 'NONE', *, *, #45, .F. ) ;
#14 = ORIENTED_EDGE ( 'NONE', *, *, #46, .T. ) ;
#15 = ORIENTED_EDGE ( 'NONE', *, *, #39, .T. ) ;
#16 = ORIENTED_EDGE ( 'NONE', *, *, #47, .F. ) ;
#17 = ORIENTED_EDGE ( 'NONE', *, *, #39, .F. ) ;
#18 = ORIENTED_EDGE ( 'NONE', *, *, #47, .T. ) ;
#19 = ORIENTED_EDGE ( 'NONE', *, *, #48, .F. ) ;
#20 = ORIENTED_EDGE ( 'NONE', *, *, #49, .T. ) ;
#21 = ORIENTED_EDGE ( 'NONE', *, *, #48, .T. ) ;
#22 = ORIENTED_EDGE ( 'NONE', *, *, #45, .T. ) ;
#23 = DIRECTION ( 'NONE',  ( 0.0000000000000000000, 1.000000000000000000, 0.0000000000000000000 ) ) ;
#24 = DIRECTION ( 'NONE',  ( 0.0000000000000000000, 0.0000000000000000000, 1.000000000000000000 ) ) ;
#25 = FILL_AREA_STYLE_COLOUR ( '', #40 ) ;
#26 = FILL_AREA_STYLE ('',( #25 ) ) ;
#27 = SURFACE_STYLE_FILL_AREA ( #26 ) ;
#28 = SURFACE_SIDE_STYLE ('',( #27 ) ) ;
#29 = SURFACE_STYLE_USAGE ( .BOTH. , #28 ) ;
#30 = PRESENTATION_STYLE_ASSIGNMENT (( #29 ) ) ;
#31 =( LENGTH_UNIT ( ) NAMED_UNIT ( * ) SI_UNIT ( $, .METRE. ) );
#32 =( CONVERSION_BASED_UNIT ( 'INCH', #140 ) LENGTH_UNIT ( ) NAMED_UNIT ( #115 ) );
#33 =( NAMED_UNIT ( * ) PLANE_ANGLE_UNIT ( ) SI_UNIT ( $, .RADIAN. ) );
#34 =( NAMED_UNIT ( * ) SI_UNIT ( $, .STERADIAN. ) SOLID_ANGLE_UNIT ( ) );
#35 =( LENGTH_UNIT ( ) NAMED_UNIT ( * ) SI_UNIT ( $, .METRE. ) );
#36 =( CONVERSION_BASED_UNIT ( 'INCH', #142 ) LENGTH_UNIT ( ) NAMED_UNIT ( #116 ) );
#37 =( NAMED_UNIT ( * ) PLANE_ANGLE_UNIT ( ) SI_UNIT ( $, .RADIAN. ) );
#38 =( NAMED_UNIT ( * ) SI_UNIT ( $, .STERADIAN. ) SOLID_ANGLE_UNIT ( ) );
#39 = EDGE_CURVE ( 'NONE', #9, #12, #85, .T. ) ;
#40 = COLOUR_RGB ( '',0.5686274509803921400, 0.5686274509803921400, 0.5882352941176470800 ) ;
#41 = ADVANCED_FACE ( 'NONE', ( #119 ), #88, .F. ) ;
#42 = ADVANCED_FACE ( 'NONE', ( #121 ), #92, .T. ) ;
#43 = ADVANCED_FACE ( 'NONE', ( #126 ), #129, .T. ) ;
#44 = ADVANCED_FACE ( 'NONE', ( #128 ), #132, .T. ) ;
#45 = EDGE_CURVE ( 'NONE', #9, #10, #53, .T. ) ;
#46 = EDGE_CURVE ( 'NONE', #12, #11, #52, .T. ) ;
#47 = EDGE_CURVE ( 'NONE', #10, #11, #109, .T. ) ;
#48 = EDGE_CURVE ( 'NONE', #10, #9, #51, .T. ) ;
#49 = EDGE_CURVE ( 'NONE', #11, #12, #50, .T. ) ;
#50 = CIRCLE ( 'NONE', #130, 0.3750000000000000600 ) ;
#51 = CIRCLE ( 'NONE', #145, 0.3750000000000000600 ) ;
#52 = CIRCLE ( 'NONE', #144, 0.3750000000000000600 ) ;
#53 = CIRCLE ( 'NONE', #124, 0.3750000000000000600 ) ;
#54 = PRODUCT_DEFINITION_SHAPE ( 'NONE', 'NONE',  #77 ) ;
#55 = APPLICATION_PROTOCOL_DEFINITION ( 'draft international standard', 'automotive_design', 1998, #73 ) ;
#56 = FILL_AREA_STYLE_COLOUR ( '', #76 ) ;
#57 = FILL_AREA_STYLE ('',( #56 ) ) ;
#58 = SURFACE_STYLE_FILL_AREA ( #57 ) ;
#59 = SURFACE_SIDE_STYLE ('',( #58 ) ) ;
#60 = SURFACE_STYLE_USAGE ( .BOTH. , #59 ) ;
#61 = PRESENTATION_STYLE_ASSIGNMENT (( #60 ) ) ;
#62 =( LENGTH_UNIT ( ) NAMED_UNIT ( * ) SI_UNIT ( $, .METRE. ) );
#63 =( CONVERSION_BASED_UNIT ( 'INCH', #133 ) LENGTH_UNIT ( ) NAMED_UNIT ( #117 ) );
#64 =( NAMED_UNIT ( * ) PLANE_ANGLE_UNIT ( ) SI_UNIT ( $, .RADIAN. ) );
#65 =( NAMED_UNIT ( * ) SI_UNIT ( $, .STERADIAN. ) SOLID_ANGLE_UNIT ( ) );
#66 = CARTESIAN_POINT ( 'NONE',  ( 0.0000000000000000000, 0.0000000000000000000, 0.0000000000000000000 ) ) ;
#67 = DIRECTION ( 'NONE',  ( 0.0000000000000000000, 0.0000000000000000000, 1.000000000000000000 ) ) ;
#68 = DIRECTION ( 'NONE',  ( 1.000000000000000000, 0.0000000000000000000, 0.0000000000000000000 ) ) ;
#69 = SHAPE_DEFINITION_REPRESENTATION ( #54, #1 ) ;
#70 = PRODUCT_CONTEXT ( 'NONE', #73, 'mechanical' ) ;
#71 = APPLICATION_PROTOCOL_DEFINITION ( 'draft international standard', 'automotive_design', 1998, #74 ) ;
#72 = PRODUCT_DEFINITION_CONTEXT ( 'detailed design', #74, 'design' ) ;
#73 = APPLICATION_CONTEXT ( 'automotive_design' ) ;
#74 = APPLICATION_CONTEXT ( 'automotive_design' ) ;
#75 = MANIFOLD_SOLID_BREP ( 'Boss-Extrude1', #122 ) ;
#76 = COLOUR_RGB ( '',0.5686274509803921400, 0.5686274509803921400, 0.5882352941176470800 ) ;
#77 = PRODUCT_DEFINITION ( 'UNKNOWN', '', #135, #72 ) ;
#78 = PRODUCT_RELATED_PRODUCT_CATEGORY ( 'part', '', ( #118 ) ) ;
#79 = ORIENTED_EDGE ( 'NONE', *, *, #49, .F. ) ;
#80 = ORIENTED_EDGE ( 'NONE', *, *, #46, .F. ) ;
#81 = CARTESIAN_POINT ( 'NONE',  ( 4.592425496802575500E-017, 0.06250000000000000000, 0.3750000000000000600 ) ) ;
#82 = CARTESIAN_POINT ( 'NONE',  ( 0.0000000000000000000, 0.06250000000000000000, -0.3750000000000000600 ) ) ;
#83 = CARTESIAN_POINT ( 'NONE',  ( 0.0000000000000000000, 0.0000000000000000000, -0.3750000000000000600 ) ) ;
#84 = CARTESIAN_POINT ( 'NONE',  ( 4.592425496802575500E-017, 0.0000000000000000000, 0.3750000000000000600 ) ) ;
#85 = LINE ( 'NONE', #86, #123 ) ;
#86 = CARTESIAN_POINT ( 'NONE',  ( 4.592425496802575500E-017, 0.06250000000000000000, 0.3750000000000000600 ) ) ;
#87 = DIRECTION ( 'NONE',  ( -0.0000000000000000000, -1.000000000000000000, -0.0000000000000000000 ) ) ;
#88 = PLANE ( 'NONE',  #120 ) ;
#89 = CARTESIAN_POINT ( 'NONE',  ( 0.0000000000000000000, 0.0000000000000000000, 0.0000000000000000000 ) ) ;
#90 = DIRECTION ( 'NONE',  ( 0.0000000000000000000, 1.000000000000000000, 0.0000000000000000000 ) ) ;
#91 = DIRECTION ( 'NONE',  ( 0.0000000000000000000, -0.0000000000000000000, 1.000000000000000000 ) ) ;
#92 = PLANE ( 'NONE',  #127 ) ;
#93 = CARTESIAN_POINT ( 'NONE',  ( 0.0000000000000000000, 0.06250000000000000000, 0.0000000000000000000 ) ) ;
#94 = DIRECTION ( 'NONE',  ( 0.0000000000000000000, 1.000000000000000000, 0.0000000000000000000 ) ) ;
#95 = DIRECTION ( 'NONE',  ( 0.0000000000000000000, -0.0000000000000000000, 1.000000000000000000 ) ) ;
#96 = CARTESIAN_POINT ( 'NONE',  ( 0.0000000000000000000, 0.06250000000000000000, 0.0000000000000000000 ) ) ;
#97 = DIRECTION ( 'NONE',  ( -0.0000000000000000000, -1.000000000000000000, -0.0000000000000000000 ) ) ;
#98 = DIRECTION ( 'NONE',  ( 0.0000000000000000000, 0.0000000000000000000, -1.000000000000000000 ) ) ;
#99 = CARTESIAN_POINT ( 'NONE',  ( 0.0000000000000000000, 0.06250000000000000000, 0.0000000000000000000 ) ) ;
#100 = DIRECTION ( 'NONE',  ( -0.0000000000000000000, -1.000000000000000000, -0.0000000000000000000 ) ) ;
#101 = DIRECTION ( 'NONE',  ( 0.0000000000000000000, 0.0000000000000000000, -1.000000000000000000 ) ) ;
#102 = CARTESIAN_POINT ( 'NONE',  ( 0.0000000000000000000, 0.06250000000000000000, 0.0000000000000000000 ) ) ;
#103 = DIRECTION ( 'NONE',  ( 0.0000000000000000000, 1.000000000000000000, 0.0000000000000000000 ) ) ;
#104 = DIRECTION ( 'NONE',  ( 0.0000000000000000000, 0.0000000000000000000, 1.000000000000000000 ) ) ;
#105 = CARTESIAN_POINT ( 'NONE',  ( 0.0000000000000000000, 0.0000000000000000000, 0.0000000000000000000 ) ) ;
#106 = DIRECTION ( 'NONE',  ( 0.0000000000000000000, 1.000000000000000000, 0.0000000000000000000 ) ) ;
#107 = DIRECTION ( 'NONE',  ( 0.0000000000000000000, 0.0000000000000000000, 1.000000000000000000 ) ) ;
#108 = CARTESIAN_POINT ( 'NONE',  ( 0.0000000000000000000, 0.06250000000000000000, 0.0000000000000000000 ) ) ;
#109 = LINE ( 'NONE', #110, #143 ) ;
#110 = CARTESIAN_POINT ( 'NONE',  ( 0.0000000000000000000, 0.06250000000000000000, -0.3750000000000000600 ) ) ;
#111 = DIRECTION ( 'NONE',  ( -0.0000000000000000000, -1.000000000000000000, -0.0000000000000000000 ) ) ;
#112 = DIRECTION ( 'NONE',  ( 0.0000000000000000000, 1.000000000000000000, 0.0000000000000000000 ) ) ;
#113 = DIRECTION ( 'NONE',  ( 0.0000000000000000000, 0.0000000000000000000, 1.000000000000000000 ) ) ;
#114 = CARTESIAN_POINT ( 'NONE',  ( 0.0000000000000000000, 0.0000000000000000000, 0.0000000000000000000 ) ) ;
#115 = DIMENSIONAL_EXPONENTS ( 1.000000000000000000, 0.0000000000000000000, 0.0000000000000000000, 0.0000000000000000000, 0.0000000000000000000, 0.0000000000000000000, 0.0000000000000000000 ) ;
#116 = DIMENSIONAL_EXPONENTS ( 1.000000000000000000, 0.0000000000000000000, 0.0000000000000000000, 0.0000000000000000000, 0.0000000000000000000, 0.0000000000000000000, 0.0000000000000000000 ) ;
#117 = DIMENSIONAL_EXPONENTS ( 1.000000000000000000, 0.0000000000000000000, 0.0000000000000000000, 0.0000000000000000000, 0.0000000000000000000, 0.0000000000000000000, 0.0000000000000000000 ) ;
#118 = PRODUCT ( 'D063F', 'D063F', '', ( #70 ) ) ;
#119 = FACE_OUTER_BOUND ( 'NONE', #8, .T. ) ;
#120 = AXIS2_PLACEMENT_3D ( 'NONE', #89, #90, #91 ) ;
#121 = FACE_OUTER_BOUND ( 'NONE', #7, .T. ) ;
#122 = CLOSED_SHELL ( 'NONE', ( #44, #43, #42, #41 ) ) ;
#123 = VECTOR ( 'NONE', #87, 39.37007874015748100 ) ;
#124 = AXIS2_PLACEMENT_3D ( 'NONE', #102, #103, #104 ) ;
#125 = AXIS2_PLACEMENT_3D ( 'NONE', #96, #97, #98 ) ;
#126 = FACE_OUTER_BOUND ( 'NONE', #5, .T. ) ;
#127 = AXIS2_PLACEMENT_3D ( 'NONE', #93, #94, #95 ) ;
#128 = FACE_OUTER_BOUND ( 'NONE', #6, .T. ) ;
#129 = CYLINDRICAL_SURFACE ( 'NONE', #125, 0.3750000000000000600 ) ;
#130 = AXIS2_PLACEMENT_3D ( 'NONE', #114, #23, #24 ) ;
#131 = AXIS2_PLACEMENT_3D ( 'NONE', #99, #100, #101 ) ;
#132 = CYLINDRICAL_SURFACE ( 'NONE', #131, 0.3750000000000000600 ) ;
#133 = LENGTH_MEASURE_WITH_UNIT ( LENGTH_MEASURE( 0.02539999999999999900 ), #62 );
#134 = PRESENTATION_LAYER_ASSIGNMENT (  '', '', ( #139 ) ) ;
#135 = PRODUCT_DEFINITION_FORMATION_WITH_SPECIFIED_SOURCE ( 'ANY', '', #118, .NOT_KNOWN. ) ;
#136 = MECHANICAL_DESIGN_GEOMETRIC_PRESENTATION_REPRESENTATION (  '', ( #139 ), #149 ) ;
#137 = AXIS2_PLACEMENT_3D ( 'NONE', #66, #67, #68 ) ;
#138 = STYLED_ITEM ( 'NONE', ( #30 ), #75 ) ;
#139 = STYLED_ITEM ( 'NONE', ( #61 ), #1 ) ;
#140 = LENGTH_MEASURE_WITH_UNIT ( LENGTH_MEASURE( 0.02539999999999999900 ), #31 );
#141 = PRESENTATION_LAYER_ASSIGNMENT (  '', '', ( #138 ) ) ;
#142 = LENGTH_MEASURE_WITH_UNIT ( LENGTH_MEASURE( 0.02539999999999999900 ), #35 );
#143 = VECTOR ( 'NONE', #111, 39.37007874015748100 ) ;
#144 = AXIS2_PLACEMENT_3D ( 'NONE', #105, #106, #107 ) ;
#145 = AXIS2_PLACEMENT_3D ( 'NONE', #108, #112, #113 ) ;
#146 = MECHANICAL_DESIGN_GEOMETRIC_PRESENTATION_REPRESENTATION (  '', ( #138 ), #147 ) ;
#147 =( GEOMETRIC_REPRESENTATION_CONTEXT ( 3 ) GLOBAL_UNCERTAINTY_ASSIGNED_CONTEXT ( ( #2 ) ) GLOBAL_UNIT_ASSIGNED_CONTEXT ( ( #32, #33, #34 ) ) REPRESENTATION_CONTEXT ( 'NONE', 'WORKASPACE' ) );
#148 =( GEOMETRIC_REPRESENTATION_CONTEXT ( 3 ) GLOBAL_UNCERTAINTY_ASSIGNED_CONTEXT ( ( #4 ) ) GLOBAL_UNIT_ASSIGNED_CONTEXT ( ( #36, #37, #38 ) ) REPRESENTATION_CONTEXT ( 'NONE', 'WORKASPACE' ) );
#149 =( GEOMETRIC_REPRESENTATION_CONTEXT ( 3 ) GLOBAL_UNCERTAINTY_ASSIGNED_CONTEXT ( ( #3 ) ) GLOBAL_UNIT_ASSIGNED_CONTEXT ( ( #63, #64, #65 ) ) REPRESENTATION_CONTEXT ( 'NONE', 'WORKASPACE' ) );
ENDSEC;
END-ISO-10303-21;
