ISO-10303-21;
HEADER;
FILE_DESCRIPTION (( 'STEP AP214' ),
    '1' );
FILE_NAME ('D094B.step',
    '2012-04-20T20:52:28',
    ( '' ),
    ( '' ),
    'SwSTEP 2.0',
    'SolidWorks 2012',
    '' );
FILE_SCHEMA (( 'AUTOMOTIVE_DESIGN' ));
ENDSEC;

DATA;
#1 = UNCERTAINTY_MEASURE_WITH_UNIT (LENGTH_MEASURE( 1.000000000000000100E-005 ), #74, 'distance_accuracy_value', 'NONE');
#2 = UNCERTAINTY_MEASURE_WITH_UNIT (LENGTH_MEASURE( 1.000000000000000100E-005 ), #129, 'distance_accuracy_value', 'NONE');
#3 = ADVANCED_BREP_SHAPE_REPRESENTATION ( 'D094B', ( #58, #81 ), #93 ) ;
#4 = UNCERTAINTY_MEASURE_WITH_UNIT (LENGTH_MEASURE( 1.000000000000000100E-005 ), #137, 'distance_accuracy_value', 'NONE');
#5 = ADVANCED_FACE ( 'NONE', ( #111 ), #109, .T. ) ;
#6 = EDGE_CURVE ( 'NONE', #139, #140, #29, .T. ) ;
#7 = EDGE_CURVE ( 'NONE', #139, #142, #12, .T. ) ;
#8 = EDGE_CURVE ( 'NONE', #140, #141, #13, .T. ) ;
#9 = EDGE_CURVE ( 'NONE', #142, #141, #39, .T. ) ;
#10 = EDGE_CURVE ( 'NONE', #142, #139, #14, .T. ) ;
#11 = EDGE_CURVE ( 'NONE', #141, #140, #15, .T. ) ;
#12 = CIRCLE ( 'NONE', #112, 0.1250000000000000000 ) ;
#13 = CIRCLE ( 'NONE', #115, 0.1250000000000000000 ) ;
#14 = CIRCLE ( 'NONE', #116, 0.1250000000000000000 ) ;
#15 = CIRCLE ( 'NONE', #113, 0.1250000000000000000 ) ;
#16 = COLOUR_RGB ( '',0.5686274509803921400, 0.5686274509803921400, 0.5882352941176470800 ) ;
#17 = ORIENTED_EDGE ( 'NONE', *, *, #11, .T. ) ;
#18 = ORIENTED_EDGE ( 'NONE', *, *, #10, .T. ) ;
#19 = ORIENTED_EDGE ( 'NONE', *, *, #7, .T. ) ;
#20 = ORIENTED_EDGE ( 'NONE', *, *, #11, .F. ) ;
#21 = ORIENTED_EDGE ( 'NONE', *, *, #8, .F. ) ;
#22 = EDGE_LOOP ( 'NONE', ( #147, #149, #148, #17 ) ) ;
#23 = EDGE_LOOP ( 'NONE', ( #143, #145, #144, #146 ) ) ;
#24 = EDGE_LOOP ( 'NONE', ( #18, #19 ) ) ;
#25 = EDGE_LOOP ( 'NONE', ( #20, #21 ) ) ;
#26 = CARTESIAN_POINT ( 'NONE',  ( 0.0000000000000000000, 0.09375000000000001400, 0.0000000000000000000 ) ) ;
#27 = DIRECTION ( 'NONE',  ( -0.0000000000000000000, -1.000000000000000000, -0.0000000000000000000 ) ) ;
#28 = DIRECTION ( 'NONE',  ( 0.0000000000000000000, 0.0000000000000000000, -1.000000000000000000 ) ) ;
#29 = LINE ( 'NONE', #30, #114 ) ;
#30 = CARTESIAN_POINT ( 'NONE',  ( 1.530808498934191200E-017, 0.09375000000000001400, 0.1250000000000000000 ) ) ;
#31 = DIRECTION ( 'NONE',  ( -0.0000000000000000000, -1.000000000000000000, -0.0000000000000000000 ) ) ;
#32 = CARTESIAN_POINT ( 'NONE',  ( 0.0000000000000000000, 0.09375000000000001400, 0.0000000000000000000 ) ) ;
#33 = DIRECTION ( 'NONE',  ( 0.0000000000000000000, 1.000000000000000000, 0.0000000000000000000 ) ) ;
#34 = DIRECTION ( 'NONE',  ( 0.0000000000000000000, 0.0000000000000000000, 1.000000000000000000 ) ) ;
#35 = CARTESIAN_POINT ( 'NONE',  ( 0.0000000000000000000, 0.0000000000000000000, 0.0000000000000000000 ) ) ;
#36 = DIRECTION ( 'NONE',  ( 0.0000000000000000000, 1.000000000000000000, 0.0000000000000000000 ) ) ;
#37 = DIRECTION ( 'NONE',  ( 0.0000000000000000000, 0.0000000000000000000, 1.000000000000000000 ) ) ;
#38 = CARTESIAN_POINT ( 'NONE',  ( 0.0000000000000000000, 0.09375000000000001400, 0.0000000000000000000 ) ) ;
#39 = LINE ( 'NONE', #40, #95 ) ;
#40 = CARTESIAN_POINT ( 'NONE',  ( 0.0000000000000000000, 0.09375000000000001400, -0.1250000000000000000 ) ) ;
#41 = DIRECTION ( 'NONE',  ( -0.0000000000000000000, -1.000000000000000000, -0.0000000000000000000 ) ) ;
#42 = DIRECTION ( 'NONE',  ( 0.0000000000000000000, 1.000000000000000000, 0.0000000000000000000 ) ) ;
#43 = DIRECTION ( 'NONE',  ( 0.0000000000000000000, 0.0000000000000000000, 1.000000000000000000 ) ) ;
#44 = CARTESIAN_POINT ( 'NONE',  ( 0.0000000000000000000, 0.0000000000000000000, 0.0000000000000000000 ) ) ;
#45 = DIRECTION ( 'NONE',  ( 0.0000000000000000000, 1.000000000000000000, 0.0000000000000000000 ) ) ;
#46 = DIRECTION ( 'NONE',  ( 0.0000000000000000000, 0.0000000000000000000, 1.000000000000000000 ) ) ;
#47 = PLANE ( 'NONE',  #97 ) ;
#48 = CARTESIAN_POINT ( 'NONE',  ( 0.0000000000000000000, 0.09375000000000001400, 0.0000000000000000000 ) ) ;
#49 = DIRECTION ( 'NONE',  ( 0.0000000000000000000, 1.000000000000000000, 0.0000000000000000000 ) ) ;
#50 = DIRECTION ( 'NONE',  ( 0.0000000000000000000, -0.0000000000000000000, 1.000000000000000000 ) ) ;
#51 = PLANE ( 'NONE',  #101 ) ;
#52 = CARTESIAN_POINT ( 'NONE',  ( 0.0000000000000000000, 0.0000000000000000000, 0.0000000000000000000 ) ) ;
#53 = ADVANCED_FACE ( 'NONE', ( #108 ), #47, .T. ) ;
#54 = ADVANCED_FACE ( 'NONE', ( #99 ), #51, .F. ) ;
#55 = ADVANCED_FACE ( 'NONE', ( #100 ), #103, .T. ) ;
#56 = DIMENSIONAL_EXPONENTS ( 1.000000000000000000, 0.0000000000000000000, 0.0000000000000000000, 0.0000000000000000000, 0.0000000000000000000, 0.0000000000000000000, 0.0000000000000000000 ) ;
#57 = DIMENSIONAL_EXPONENTS ( 1.000000000000000000, 0.0000000000000000000, 0.0000000000000000000, 0.0000000000000000000, 0.0000000000000000000, 0.0000000000000000000, 0.0000000000000000000 ) ;
#58 = MANIFOLD_SOLID_BREP ( 'Boss-Extrude1', #110 ) ;
#59 = PRODUCT_DEFINITION_CONTEXT ( 'detailed design', #91, 'design' ) ;
#60 = PRODUCT_DEFINITION_SHAPE ( 'NONE', 'NONE',  #61 ) ;
#61 = PRODUCT_DEFINITION ( 'UNKNOWN', '', #138, #59 ) ;
#62 = COLOUR_RGB ( '',0.5686274509803921400, 0.5686274509803921400, 0.5882352941176470800 ) ;
#63 = PRODUCT_RELATED_PRODUCT_CATEGORY ( 'part', '', ( #80 ) ) ;
#64 = DIMENSIONAL_EXPONENTS ( 1.000000000000000000, 0.0000000000000000000, 0.0000000000000000000, 0.0000000000000000000, 0.0000000000000000000, 0.0000000000000000000, 0.0000000000000000000 ) ;
#65 =( NAMED_UNIT ( * ) PLANE_ANGLE_UNIT ( ) SI_UNIT ( $, .RADIAN. ) );
#66 =( NAMED_UNIT ( * ) SI_UNIT ( $, .STERADIAN. ) SOLID_ANGLE_UNIT ( ) );
#67 = FILL_AREA_STYLE_COLOUR ( '', #62 ) ;
#68 = FILL_AREA_STYLE ('',( #67 ) ) ;
#69 = SURFACE_STYLE_FILL_AREA ( #68 ) ;
#70 = SURFACE_SIDE_STYLE ('',( #69 ) ) ;
#71 = SURFACE_STYLE_USAGE ( .BOTH. , #70 ) ;
#72 = PRESENTATION_STYLE_ASSIGNMENT (( #71 ) ) ;
#73 =( LENGTH_UNIT ( ) NAMED_UNIT ( * ) SI_UNIT ( $, .METRE. ) );
#74 =( CONVERSION_BASED_UNIT ( 'INCH', #88 ) LENGTH_UNIT ( ) NAMED_UNIT ( #56 ) );
#75 =( NAMED_UNIT ( * ) PLANE_ANGLE_UNIT ( ) SI_UNIT ( $, .RADIAN. ) );
#76 =( NAMED_UNIT ( * ) SI_UNIT ( $, .STERADIAN. ) SOLID_ANGLE_UNIT ( ) );
#77 = CARTESIAN_POINT ( 'NONE',  ( 0.0000000000000000000, 0.0000000000000000000, 0.0000000000000000000 ) ) ;
#78 = DIRECTION ( 'NONE',  ( 0.0000000000000000000, 0.0000000000000000000, 1.000000000000000000 ) ) ;
#79 = DIRECTION ( 'NONE',  ( 1.000000000000000000, 0.0000000000000000000, 0.0000000000000000000 ) ) ;
#80 = PRODUCT ( 'D094B', 'D094B', '', ( #84 ) ) ;
#81 = AXIS2_PLACEMENT_3D ( 'NONE', #77, #78, #79 ) ;
#82 = SHAPE_DEFINITION_REPRESENTATION ( #60, #3 ) ;
#83 = APPLICATION_PROTOCOL_DEFINITION ( 'draft international standard', 'automotive_design', 1998, #90 ) ;
#84 = PRODUCT_CONTEXT ( 'NONE', #90, 'mechanical' ) ;
#85 = APPLICATION_PROTOCOL_DEFINITION ( 'draft international standard', 'automotive_design', 1998, #91 ) ;
#86 = PRESENTATION_LAYER_ASSIGNMENT (  '', '', ( #87 ) ) ;
#87 = STYLED_ITEM ( 'NONE', ( #72 ), #3 ) ;
#88 = LENGTH_MEASURE_WITH_UNIT ( LENGTH_MEASURE( 0.02539999999999999900 ), #73 );
#89 = MECHANICAL_DESIGN_GEOMETRIC_PRESENTATION_REPRESENTATION (  '', ( #87 ), #94 ) ;
#90 = APPLICATION_CONTEXT ( 'automotive_design' ) ;
#91 = APPLICATION_CONTEXT ( 'automotive_design' ) ;
#92 =( GEOMETRIC_REPRESENTATION_CONTEXT ( 3 ) GLOBAL_UNCERTAINTY_ASSIGNED_CONTEXT ( ( #2 ) ) GLOBAL_UNIT_ASSIGNED_CONTEXT ( ( #129, #130, #131 ) ) REPRESENTATION_CONTEXT ( 'NONE', 'WORKASPACE' ) );
#93 =( GEOMETRIC_REPRESENTATION_CONTEXT ( 3 ) GLOBAL_UNCERTAINTY_ASSIGNED_CONTEXT ( ( #4 ) ) GLOBAL_UNIT_ASSIGNED_CONTEXT ( ( #137, #65, #66 ) ) REPRESENTATION_CONTEXT ( 'NONE', 'WORKASPACE' ) );
#94 =( GEOMETRIC_REPRESENTATION_CONTEXT ( 3 ) GLOBAL_UNCERTAINTY_ASSIGNED_CONTEXT ( ( #1 ) ) GLOBAL_UNIT_ASSIGNED_CONTEXT ( ( #74, #75, #76 ) ) REPRESENTATION_CONTEXT ( 'NONE', 'WORKASPACE' ) );
#95 = VECTOR ( 'NONE', #41, 39.37007874015748100 ) ;
#96 = AXIS2_PLACEMENT_3D ( 'NONE', #119, #120, #121 ) ;
#97 = AXIS2_PLACEMENT_3D ( 'NONE', #48, #49, #50 ) ;
#98 = LENGTH_MEASURE_WITH_UNIT ( LENGTH_MEASURE( 0.02539999999999999900 ), #136 );
#99 = FACE_OUTER_BOUND ( 'NONE', #25, .T. ) ;
#100 = FACE_OUTER_BOUND ( 'NONE', #22, .T. ) ;
#101 = AXIS2_PLACEMENT_3D ( 'NONE', #52, #117, #118 ) ;
#102 = STYLED_ITEM ( 'NONE', ( #127 ), #58 ) ;
#103 = CYLINDRICAL_SURFACE ( 'NONE', #96, 0.1250000000000000000 ) ;
#104 = PRESENTATION_LAYER_ASSIGNMENT (  '', '', ( #102 ) ) ;
#105 = MECHANICAL_DESIGN_GEOMETRIC_PRESENTATION_REPRESENTATION (  '', ( #102 ), #92 ) ;
#106 = LENGTH_MEASURE_WITH_UNIT ( LENGTH_MEASURE( 0.02539999999999999900 ), #128 );
#107 = AXIS2_PLACEMENT_3D ( 'NONE', #26, #27, #28 ) ;
#108 = FACE_OUTER_BOUND ( 'NONE', #24, .T. ) ;
#109 = CYLINDRICAL_SURFACE ( 'NONE', #107, 0.1250000000000000000 ) ;
#110 = CLOSED_SHELL ( 'NONE', ( #5, #55, #53, #54 ) ) ;
#111 = FACE_OUTER_BOUND ( 'NONE', #23, .T. ) ;
#112 = AXIS2_PLACEMENT_3D ( 'NONE', #32, #33, #34 ) ;
#113 = AXIS2_PLACEMENT_3D ( 'NONE', #44, #45, #46 ) ;
#114 = VECTOR ( 'NONE', #31, 39.37007874015748100 ) ;
#115 = AXIS2_PLACEMENT_3D ( 'NONE', #35, #36, #37 ) ;
#116 = AXIS2_PLACEMENT_3D ( 'NONE', #38, #42, #43 ) ;
#117 = DIRECTION ( 'NONE',  ( 0.0000000000000000000, 1.000000000000000000, 0.0000000000000000000 ) ) ;
#118 = DIRECTION ( 'NONE',  ( 0.0000000000000000000, -0.0000000000000000000, 1.000000000000000000 ) ) ;
#119 = CARTESIAN_POINT ( 'NONE',  ( 0.0000000000000000000, 0.09375000000000001400, 0.0000000000000000000 ) ) ;
#120 = DIRECTION ( 'NONE',  ( -0.0000000000000000000, -1.000000000000000000, -0.0000000000000000000 ) ) ;
#121 = DIRECTION ( 'NONE',  ( 0.0000000000000000000, 0.0000000000000000000, -1.000000000000000000 ) ) ;
#122 = FILL_AREA_STYLE_COLOUR ( '', #16 ) ;
#123 = FILL_AREA_STYLE ('',( #122 ) ) ;
#124 = SURFACE_STYLE_FILL_AREA ( #123 ) ;
#125 = SURFACE_SIDE_STYLE ('',( #124 ) ) ;
#126 = SURFACE_STYLE_USAGE ( .BOTH. , #125 ) ;
#127 = PRESENTATION_STYLE_ASSIGNMENT (( #126 ) ) ;
#128 =( LENGTH_UNIT ( ) NAMED_UNIT ( * ) SI_UNIT ( $, .METRE. ) );
#129 =( CONVERSION_BASED_UNIT ( 'INCH', #106 ) LENGTH_UNIT ( ) NAMED_UNIT ( #57 ) );
#130 =( NAMED_UNIT ( * ) PLANE_ANGLE_UNIT ( ) SI_UNIT ( $, .RADIAN. ) );
#131 =( NAMED_UNIT ( * ) SI_UNIT ( $, .STERADIAN. ) SOLID_ANGLE_UNIT ( ) );
#132 = CARTESIAN_POINT ( 'NONE',  ( 1.530808498934191200E-017, 0.09375000000000001400, 0.1250000000000000000 ) ) ;
#133 = CARTESIAN_POINT ( 'NONE',  ( 1.530808498934191200E-017, 0.0000000000000000000, 0.1250000000000000000 ) ) ;
#134 = CARTESIAN_POINT ( 'NONE',  ( 0.0000000000000000000, 0.0000000000000000000, -0.1250000000000000000 ) ) ;
#135 = CARTESIAN_POINT ( 'NONE',  ( 0.0000000000000000000, 0.09375000000000001400, -0.1250000000000000000 ) ) ;
#136 =( LENGTH_UNIT ( ) NAMED_UNIT ( * ) SI_UNIT ( $, .METRE. ) );
#137 =( CONVERSION_BASED_UNIT ( 'INCH', #98 ) LENGTH_UNIT ( ) NAMED_UNIT ( #64 ) );
#138 = PRODUCT_DEFINITION_FORMATION_WITH_SPECIFIED_SOURCE ( 'ANY', '', #80, .NOT_KNOWN. ) ;
#139 = VERTEX_POINT ( 'NONE', #132 ) ;
#140 = VERTEX_POINT ( 'NONE', #133 ) ;
#141 = VERTEX_POINT ( 'NONE', #134 ) ;
#142 = VERTEX_POINT ( 'NONE', #135 ) ;
#143 = ORIENTED_EDGE ( 'NONE', *, *, #7, .F. ) ;
#144 = ORIENTED_EDGE ( 'NONE', *, *, #8, .T. ) ;
#145 = ORIENTED_EDGE ( 'NONE', *, *, #6, .T. ) ;
#146 = ORIENTED_EDGE ( 'NONE', *, *, #9, .F. ) ;
#147 = ORIENTED_EDGE ( 'NONE', *, *, #6, .F. ) ;
#148 = ORIENTED_EDGE ( 'NONE', *, *, #9, .T. ) ;
#149 = ORIENTED_EDGE ( 'NONE', *, *, #10, .F. ) ;
ENDSEC;
END-ISO-10303-21;
