ISO-10303-21;
HEADER;
FILE_DESCRIPTION (( 'STEP AP214' ),
    '1' );
FILE_NAME ('D250B2.step',
    '2012-04-20T20:54:48',
    ( '' ),
    ( '' ),
    'SwSTEP 2.0',
    'SolidWorks 2012',
    '' );
FILE_SCHEMA (( 'AUTOMOTIVE_DESIGN' ));
ENDSEC;

DATA;
#1 = ORIENTED_EDGE ( 'NONE', *, *, #115, .F. ) ;
#2 = ORIENTED_EDGE ( 'NONE', *, *, #112, .F. ) ;
#3 = ORIENTED_EDGE ( 'NONE', *, *, #116, .T. ) ;
#4 = ORIENTED_EDGE ( 'NONE', *, *, #115, .T. ) ;
#5 = ORIENTED_EDGE ( 'NONE', *, *, #110, .T. ) ;
#6 = ORIENTED_EDGE ( 'NONE', *, *, #116, .F. ) ;
#7 = ORIENTED_EDGE ( 'NONE', *, *, #113, .F. ) ;
#8 = CARTESIAN_POINT ( 'NONE',  ( 0.0000000000000000000, 0.2500000000000000000, 0.0000000000000000000 ) ) ;
#9 = DIRECTION ( 'NONE',  ( 0.0000000000000000000, 1.000000000000000000, 0.0000000000000000000 ) ) ;
#10 = DIRECTION ( 'NONE',  ( 0.0000000000000000000, 0.0000000000000000000, 1.000000000000000000 ) ) ;
#11 = CARTESIAN_POINT ( 'NONE',  ( 0.0000000000000000000, 0.0000000000000000000, 0.0000000000000000000 ) ) ;
#12 = LINE ( 'NONE', #13, #81 ) ;
#13 = CARTESIAN_POINT ( 'NONE',  ( 1.913510623667739500E-017, 0.2500000000000000000, 0.1562500000000000000 ) ) ;
#14 = DIRECTION ( 'NONE',  ( -0.0000000000000000000, -1.000000000000000000, -0.0000000000000000000 ) ) ;
#15 = DIRECTION ( 'NONE',  ( 0.0000000000000000000, 1.000000000000000000, 0.0000000000000000000 ) ) ;
#16 = DIRECTION ( 'NONE',  ( 0.0000000000000000000, 0.0000000000000000000, 1.000000000000000000 ) ) ;
#17 = CARTESIAN_POINT ( 'NONE',  ( 0.0000000000000000000, 0.2500000000000000000, 0.0000000000000000000 ) ) ;
#18 = LINE ( 'NONE', #19, #83 ) ;
#19 = CARTESIAN_POINT ( 'NONE',  ( 0.0000000000000000000, 0.2500000000000000000, -0.1562500000000000000 ) ) ;
#20 = DIRECTION ( 'NONE',  ( -0.0000000000000000000, -1.000000000000000000, -0.0000000000000000000 ) ) ;
#21 = DIRECTION ( 'NONE',  ( 0.0000000000000000000, 1.000000000000000000, 0.0000000000000000000 ) ) ;
#22 = DIRECTION ( 'NONE',  ( 0.0000000000000000000, 0.0000000000000000000, 1.000000000000000000 ) ) ;
#23 = CARTESIAN_POINT ( 'NONE',  ( 0.0000000000000000000, 0.0000000000000000000, 0.0000000000000000000 ) ) ;
#24 = DIRECTION ( 'NONE',  ( 0.0000000000000000000, 1.000000000000000000, 0.0000000000000000000 ) ) ;
#25 = DIRECTION ( 'NONE',  ( 0.0000000000000000000, 0.0000000000000000000, 1.000000000000000000 ) ) ;
#26 = CARTESIAN_POINT ( 'NONE',  ( 0.0000000000000000000, 0.2500000000000000000, 0.0000000000000000000 ) ) ;
#27 = DIRECTION ( 'NONE',  ( -0.0000000000000000000, -1.000000000000000000, -0.0000000000000000000 ) ) ;
#28 = DIRECTION ( 'NONE',  ( 0.0000000000000000000, 0.0000000000000000000, -1.000000000000000000 ) ) ;
#29 = CARTESIAN_POINT ( 'NONE',  ( 0.0000000000000000000, 0.2500000000000000000, 0.0000000000000000000 ) ) ;
#30 = DIRECTION ( 'NONE',  ( -0.0000000000000000000, -1.000000000000000000, -0.0000000000000000000 ) ) ;
#31 = DIRECTION ( 'NONE',  ( 0.0000000000000000000, 0.0000000000000000000, -1.000000000000000000 ) ) ;
#32 = PLANE ( 'NONE',  #92 ) ;
#33 = CARTESIAN_POINT ( 'NONE',  ( 0.0000000000000000000, 0.2500000000000000000, 0.0000000000000000000 ) ) ;
#34 = DIRECTION ( 'NONE',  ( 0.0000000000000000000, 1.000000000000000000, 0.0000000000000000000 ) ) ;
#35 = DIRECTION ( 'NONE',  ( 0.0000000000000000000, -0.0000000000000000000, 1.000000000000000000 ) ) ;
#36 = PLANE ( 'NONE',  #94 ) ;
#37 = CARTESIAN_POINT ( 'NONE',  ( 0.0000000000000000000, 0.0000000000000000000, 0.0000000000000000000 ) ) ;
#38 = DIRECTION ( 'NONE',  ( 0.0000000000000000000, 1.000000000000000000, 0.0000000000000000000 ) ) ;
#39 = DIRECTION ( 'NONE',  ( 0.0000000000000000000, -0.0000000000000000000, 1.000000000000000000 ) ) ;
#40 = CARTESIAN_POINT ( 'NONE',  ( 0.0000000000000000000, 0.2500000000000000000, -0.1562500000000000000 ) ) ;
#41 = CARTESIAN_POINT ( 'NONE',  ( 0.0000000000000000000, 0.0000000000000000000, -0.1562500000000000000 ) ) ;
#42 = CARTESIAN_POINT ( 'NONE',  ( 1.913510623667739500E-017, 0.0000000000000000000, 0.1562500000000000000 ) ) ;
#43 = CARTESIAN_POINT ( 'NONE',  ( 1.913510623667739500E-017, 0.2500000000000000000, 0.1562500000000000000 ) ) ;
#44 = FILL_AREA_STYLE_COLOUR ( '', #126 ) ;
#45 = FILL_AREA_STYLE ('',( #44 ) ) ;
#46 = SURFACE_STYLE_FILL_AREA ( #45 ) ;
#47 = SURFACE_SIDE_STYLE ('',( #46 ) ) ;
#48 = SURFACE_STYLE_USAGE ( .BOTH. , #47 ) ;
#49 = PRESENTATION_STYLE_ASSIGNMENT (( #48 ) ) ;
#50 =( LENGTH_UNIT ( ) NAMED_UNIT ( * ) SI_UNIT ( $, .METRE. ) );
#51 =( CONVERSION_BASED_UNIT ( 'INCH', #95 ) LENGTH_UNIT ( ) NAMED_UNIT ( #108 ) );
#52 =( NAMED_UNIT ( * ) PLANE_ANGLE_UNIT ( ) SI_UNIT ( $, .RADIAN. ) );
#53 =( NAMED_UNIT ( * ) SI_UNIT ( $, .STERADIAN. ) SOLID_ANGLE_UNIT ( ) );
#54 =( LENGTH_UNIT ( ) NAMED_UNIT ( * ) SI_UNIT ( $, .METRE. ) );
#55 =( CONVERSION_BASED_UNIT ( 'INCH', #96 ) LENGTH_UNIT ( ) NAMED_UNIT ( #109 ) );
#56 =( NAMED_UNIT ( * ) PLANE_ANGLE_UNIT ( ) SI_UNIT ( $, .RADIAN. ) );
#57 =( NAMED_UNIT ( * ) SI_UNIT ( $, .STERADIAN. ) SOLID_ANGLE_UNIT ( ) );
#58 = APPLICATION_PROTOCOL_DEFINITION ( 'draft international standard', 'automotive_design', 1998, #106 ) ;
#59 = FILL_AREA_STYLE_COLOUR ( '', #125 ) ;
#60 = FILL_AREA_STYLE ('',( #59 ) ) ;
#61 = SURFACE_STYLE_FILL_AREA ( #60 ) ;
#62 = SURFACE_SIDE_STYLE ('',( #61 ) ) ;
#63 = SURFACE_STYLE_USAGE ( .BOTH. , #62 ) ;
#64 = PRESENTATION_STYLE_ASSIGNMENT (( #63 ) ) ;
#65 =( LENGTH_UNIT ( ) NAMED_UNIT ( * ) SI_UNIT ( $, .METRE. ) );
#66 =( CONVERSION_BASED_UNIT ( 'INCH', #100 ) LENGTH_UNIT ( ) NAMED_UNIT ( #128 ) );
#67 =( NAMED_UNIT ( * ) PLANE_ANGLE_UNIT ( ) SI_UNIT ( $, .RADIAN. ) );
#68 =( NAMED_UNIT ( * ) SI_UNIT ( $, .STERADIAN. ) SOLID_ANGLE_UNIT ( ) );
#69 = CARTESIAN_POINT ( 'NONE',  ( 0.0000000000000000000, 0.0000000000000000000, 0.0000000000000000000 ) ) ;
#70 = DIRECTION ( 'NONE',  ( 0.0000000000000000000, 0.0000000000000000000, 1.000000000000000000 ) ) ;
#71 = DIRECTION ( 'NONE',  ( 1.000000000000000000, 0.0000000000000000000, 0.0000000000000000000 ) ) ;
#72 = SHAPE_DEFINITION_REPRESENTATION ( #143, #147 ) ;
#73 = PRODUCT_CONTEXT ( 'NONE', #106, 'mechanical' ) ;
#74 = APPLICATION_PROTOCOL_DEFINITION ( 'draft international standard', 'automotive_design', 1998, #107 ) ;
#75 = STYLED_ITEM ( 'NONE', ( #49 ), #144 ) ;
#76 = AXIS2_PLACEMENT_3D ( 'NONE', #8, #9, #10 ) ;
#77 = FACE_OUTER_BOUND ( 'NONE', #135, .T. ) ;
#78 = CLOSED_SHELL ( 'NONE', ( #117, #118, #119, #120 ) ) ;
#79 = AXIS2_PLACEMENT_3D ( 'NONE', #23, #24, #25 ) ;
#80 = AXIS2_PLACEMENT_3D ( 'NONE', #11, #15, #16 ) ;
#81 = VECTOR ( 'NONE', #14, 39.37007874015748100 ) ;
#82 = AXIS2_PLACEMENT_3D ( 'NONE', #17, #21, #22 ) ;
#83 = VECTOR ( 'NONE', #20, 39.37007874015748100 ) ;
#84 = AXIS2_PLACEMENT_3D ( 'NONE', #26, #27, #28 ) ;
#85 = FACE_OUTER_BOUND ( 'NONE', #138, .T. ) ;
#86 = CYLINDRICAL_SURFACE ( 'NONE', #84, 0.1562500000000000000 ) ;
#87 = FACE_OUTER_BOUND ( 'NONE', #136, .T. ) ;
#88 = AXIS2_PLACEMENT_3D ( 'NONE', #29, #30, #31 ) ;
#89 = CYLINDRICAL_SURFACE ( 'NONE', #88, 0.1562500000000000000 ) ;
#90 = FACE_OUTER_BOUND ( 'NONE', #137, .T. ) ;
#91 = PRESENTATION_LAYER_ASSIGNMENT (  '', '', ( #75 ) ) ;
#92 = AXIS2_PLACEMENT_3D ( 'NONE', #33, #34, #35 ) ;
#93 = MECHANICAL_DESIGN_GEOMETRIC_PRESENTATION_REPRESENTATION (  '', ( #75 ), #103 ) ;
#94 = AXIS2_PLACEMENT_3D ( 'NONE', #37, #38, #39 ) ;
#95 = LENGTH_MEASURE_WITH_UNIT ( LENGTH_MEASURE( 0.02539999999999999900 ), #50 );
#96 = LENGTH_MEASURE_WITH_UNIT ( LENGTH_MEASURE( 0.02539999999999999900 ), #54 );
#97 = STYLED_ITEM ( 'NONE', ( #64 ), #147 ) ;
#98 = PRESENTATION_LAYER_ASSIGNMENT (  '', '', ( #97 ) ) ;
#99 = MECHANICAL_DESIGN_GEOMETRIC_PRESENTATION_REPRESENTATION (  '', ( #97 ), #105 ) ;
#100 = LENGTH_MEASURE_WITH_UNIT ( LENGTH_MEASURE( 0.02539999999999999900 ), #65 );
#101 = AXIS2_PLACEMENT_3D ( 'NONE', #69, #70, #71 ) ;
#102 = PRODUCT_DEFINITION_FORMATION_WITH_SPECIFIED_SOURCE ( 'ANY', '', #127, .NOT_KNOWN. ) ;
#103 =( GEOMETRIC_REPRESENTATION_CONTEXT ( 3 ) GLOBAL_UNCERTAINTY_ASSIGNED_CONTEXT ( ( #148 ) ) GLOBAL_UNIT_ASSIGNED_CONTEXT ( ( #51, #52, #53 ) ) REPRESENTATION_CONTEXT ( 'NONE', 'WORKASPACE' ) );
#104 =( GEOMETRIC_REPRESENTATION_CONTEXT ( 3 ) GLOBAL_UNCERTAINTY_ASSIGNED_CONTEXT ( ( #146 ) ) GLOBAL_UNIT_ASSIGNED_CONTEXT ( ( #55, #56, #57 ) ) REPRESENTATION_CONTEXT ( 'NONE', 'WORKASPACE' ) );
#105 =( GEOMETRIC_REPRESENTATION_CONTEXT ( 3 ) GLOBAL_UNCERTAINTY_ASSIGNED_CONTEXT ( ( #145 ) ) GLOBAL_UNIT_ASSIGNED_CONTEXT ( ( #66, #67, #68 ) ) REPRESENTATION_CONTEXT ( 'NONE', 'WORKASPACE' ) );
#106 = APPLICATION_CONTEXT ( 'automotive_design' ) ;
#107 = APPLICATION_CONTEXT ( 'automotive_design' ) ;
#108 = DIMENSIONAL_EXPONENTS ( 1.000000000000000000, 0.0000000000000000000, 0.0000000000000000000, 0.0000000000000000000, 0.0000000000000000000, 0.0000000000000000000, 0.0000000000000000000 ) ;
#109 = DIMENSIONAL_EXPONENTS ( 1.000000000000000000, 0.0000000000000000000, 0.0000000000000000000, 0.0000000000000000000, 0.0000000000000000000, 0.0000000000000000000, 0.0000000000000000000 ) ;
#110 = EDGE_CURVE ( 'NONE', #132, #129, #111, .T. ) ;
#111 = CIRCLE ( 'NONE', #76, 0.1562500000000000000 ) ;
#112 = EDGE_CURVE ( 'NONE', #132, #131, #12, .T. ) ;
#113 = EDGE_CURVE ( 'NONE', #131, #130, #121, .T. ) ;
#114 = EDGE_CURVE ( 'NONE', #129, #130, #18, .T. ) ;
#115 = EDGE_CURVE ( 'NONE', #129, #132, #123, .T. ) ;
#116 = EDGE_CURVE ( 'NONE', #130, #131, #122, .T. ) ;
#117 = ADVANCED_FACE ( 'NONE', ( #77 ), #86, .T. ) ;
#118 = ADVANCED_FACE ( 'NONE', ( #85 ), #89, .T. ) ;
#119 = ADVANCED_FACE ( 'NONE', ( #87 ), #32, .T. ) ;
#120 = ADVANCED_FACE ( 'NONE', ( #90 ), #36, .F. ) ;
#121 = CIRCLE ( 'NONE', #80, 0.1562500000000000000 ) ;
#122 = CIRCLE ( 'NONE', #79, 0.1562500000000000000 ) ;
#123 = CIRCLE ( 'NONE', #82, 0.1562500000000000000 ) ;
#124 = PRODUCT_RELATED_PRODUCT_CATEGORY ( 'part', '', ( #127 ) ) ;
#125 = COLOUR_RGB ( '',0.5686274509803921400, 0.5686274509803921400, 0.5882352941176470800 ) ;
#126 = COLOUR_RGB ( '',0.5686274509803921400, 0.5686274509803921400, 0.5882352941176470800 ) ;
#127 = PRODUCT ( 'D250B2', 'D250B2', '', ( #73 ) ) ;
#128 = DIMENSIONAL_EXPONENTS ( 1.000000000000000000, 0.0000000000000000000, 0.0000000000000000000, 0.0000000000000000000, 0.0000000000000000000, 0.0000000000000000000, 0.0000000000000000000 ) ;
#129 = VERTEX_POINT ( 'NONE', #40 ) ;
#130 = VERTEX_POINT ( 'NONE', #41 ) ;
#131 = VERTEX_POINT ( 'NONE', #42 ) ;
#132 = VERTEX_POINT ( 'NONE', #43 ) ;
#133 = ORIENTED_EDGE ( 'NONE', *, *, #114, .F. ) ;
#134 = ORIENTED_EDGE ( 'NONE', *, *, #114, .T. ) ;
#135 = EDGE_LOOP ( 'NONE', ( #141, #139, #140, #133 ) ) ;
#136 = EDGE_LOOP ( 'NONE', ( #4, #5 ) ) ;
#137 = EDGE_LOOP ( 'NONE', ( #6, #7 ) ) ;
#138 = EDGE_LOOP ( 'NONE', ( #2, #1, #134, #3 ) ) ;
#139 = ORIENTED_EDGE ( 'NONE', *, *, #112, .T. ) ;
#140 = ORIENTED_EDGE ( 'NONE', *, *, #113, .T. ) ;
#141 = ORIENTED_EDGE ( 'NONE', *, *, #110, .F. ) ;
#142 = PRODUCT_DEFINITION_CONTEXT ( 'detailed design', #107, 'design' ) ;
#143 = PRODUCT_DEFINITION_SHAPE ( 'NONE', 'NONE',  #149 ) ;
#144 = MANIFOLD_SOLID_BREP ( 'Boss-Extrude1', #78 ) ;
#145 = UNCERTAINTY_MEASURE_WITH_UNIT (LENGTH_MEASURE( 1.000000000000000100E-005 ), #66, 'distance_accuracy_value', 'NONE');
#146 = UNCERTAINTY_MEASURE_WITH_UNIT (LENGTH_MEASURE( 1.000000000000000100E-005 ), #55, 'distance_accuracy_value', 'NONE');
#147 = ADVANCED_BREP_SHAPE_REPRESENTATION ( 'D250B2', ( #144, #101 ), #104 ) ;
#148 = UNCERTAINTY_MEASURE_WITH_UNIT (LENGTH_MEASURE( 1.000000000000000100E-005 ), #51, 'distance_accuracy_value', 'NONE');
#149 = PRODUCT_DEFINITION ( 'UNKNOWN', '', #102, #142 ) ;
ENDSEC;
END-ISO-10303-21;
