ISO-10303-21;
HEADER;
FILE_DESCRIPTION (( 'STEP AP214' ),
    '1' );
FILE_NAME ('D250H.step',
    '2012-04-20T20:55:50',
    ( '' ),
    ( '' ),
    'SwSTEP 2.0',
    'SolidWorks 2012',
    '' );
FILE_SCHEMA (( 'AUTOMOTIVE_DESIGN' ));
ENDSEC;

DATA;
#1 = FILL_AREA_STYLE_COLOUR ( '', #145 ) ;
#2 = FILL_AREA_STYLE ('',( #1 ) ) ;
#3 = SURFACE_STYLE_FILL_AREA ( #2 ) ;
#4 = SURFACE_SIDE_STYLE ('',( #3 ) ) ;
#5 = SURFACE_STYLE_USAGE ( .BOTH. , #4 ) ;
#6 = PRESENTATION_STYLE_ASSIGNMENT (( #5 ) ) ;
#7 =( LENGTH_UNIT ( ) NAMED_UNIT ( * ) SI_UNIT ( $, .METRE. ) );
#8 =( CONVERSION_BASED_UNIT ( 'INCH', #25 ) LENGTH_UNIT ( ) NAMED_UNIT ( #72 ) );
#9 =( NAMED_UNIT ( * ) PLANE_ANGLE_UNIT ( ) SI_UNIT ( $, .RADIAN. ) );
#10 =( NAMED_UNIT ( * ) SI_UNIT ( $, .STERADIAN. ) SOLID_ANGLE_UNIT ( ) );
#11 = CARTESIAN_POINT ( 'NONE',  ( 6.123233995736766000E-017, 0.2500000000000000000, 0.5000000000000000000 ) ) ;
#12 = DIRECTION ( 'NONE',  ( -0.0000000000000000000, -1.000000000000000000, -0.0000000000000000000 ) ) ;
#13 = CARTESIAN_POINT ( 'NONE',  ( 0.0000000000000000000, 0.2500000000000000000, 0.0000000000000000000 ) ) ;
#14 = DIRECTION ( 'NONE',  ( 0.0000000000000000000, 1.000000000000000000, 0.0000000000000000000 ) ) ;
#15 = DIRECTION ( 'NONE',  ( 0.0000000000000000000, 0.0000000000000000000, 1.000000000000000000 ) ) ;
#16 = CARTESIAN_POINT ( 'NONE',  ( 0.0000000000000000000, 0.2500000000000000000, 0.0000000000000000000 ) ) ;
#17 = DIRECTION ( 'NONE',  ( -0.0000000000000000000, -1.000000000000000000, -0.0000000000000000000 ) ) ;
#18 = DIRECTION ( 'NONE',  ( 0.0000000000000000000, 0.0000000000000000000, -1.000000000000000000 ) ) ;
#19 = CARTESIAN_POINT ( 'NONE',  ( 0.0000000000000000000, 0.0000000000000000000, 0.0000000000000000000 ) ) ;
#20 = DIRECTION ( 'NONE',  ( 0.0000000000000000000, 1.000000000000000000, 0.0000000000000000000 ) ) ;
#21 = DIRECTION ( 'NONE',  ( 0.0000000000000000000, 0.0000000000000000000, 1.000000000000000000 ) ) ;
#22 =( LENGTH_UNIT ( ) NAMED_UNIT ( * ) SI_UNIT ( $, .METRE. ) );
#23 = AXIS2_PLACEMENT_3D ( 'NONE', #13, #14, #15 ) ;
#24 = AXIS2_PLACEMENT_3D ( 'NONE', #16, #17, #18 ) ;
#25 = LENGTH_MEASURE_WITH_UNIT ( LENGTH_MEASURE( 0.02539999999999999900 ), #7 );
#26 = PRODUCT ( 'D250H', 'D250H', '', ( #82 ) ) ;
#27 = ADVANCED_FACE ( 'NONE', ( #134 ), #99, .F. ) ;
#28 = ADVANCED_FACE ( 'NONE', ( #125 ), #103, .T. ) ;
#29 = ADVANCED_FACE ( 'NONE', ( #136 ), #126, .T. ) ;
#30 = EDGE_CURVE ( 'NONE', #66, #63, #142, .T. ) ;
#31 = EDGE_CURVE ( 'NONE', #65, #63, #114, .T. ) ;
#32 = EDGE_CURVE ( 'NONE', #65, #64, #143, .T. ) ;
#33 = APPLICATION_CONTEXT ( 'automotive_design' ) ;
#34 = APPLICATION_CONTEXT ( 'automotive_design' ) ;
#35 =( CONVERSION_BASED_UNIT ( 'INCH', #48 ) LENGTH_UNIT ( ) NAMED_UNIT ( #73 ) );
#36 =( NAMED_UNIT ( * ) PLANE_ANGLE_UNIT ( ) SI_UNIT ( $, .RADIAN. ) );
#37 =( NAMED_UNIT ( * ) SI_UNIT ( $, .STERADIAN. ) SOLID_ANGLE_UNIT ( ) );
#38 = FILL_AREA_STYLE_COLOUR ( '', #148 ) ;
#39 = FILL_AREA_STYLE ('',( #38 ) ) ;
#40 = SURFACE_STYLE_FILL_AREA ( #39 ) ;
#41 = SURFACE_SIDE_STYLE ('',( #40 ) ) ;
#42 = SURFACE_STYLE_USAGE ( .BOTH. , #41 ) ;
#43 = PRESENTATION_STYLE_ASSIGNMENT (( #42 ) ) ;
#44 =( LENGTH_UNIT ( ) NAMED_UNIT ( * ) SI_UNIT ( $, .METRE. ) );
#45 =( CONVERSION_BASED_UNIT ( 'INCH', #52 ) LENGTH_UNIT ( ) NAMED_UNIT ( #74 ) );
#46 =( NAMED_UNIT ( * ) PLANE_ANGLE_UNIT ( ) SI_UNIT ( $, .RADIAN. ) );
#47 =( NAMED_UNIT ( * ) SI_UNIT ( $, .STERADIAN. ) SOLID_ANGLE_UNIT ( ) );
#48 = LENGTH_MEASURE_WITH_UNIT ( LENGTH_MEASURE( 0.02539999999999999900 ), #22 );
#49 = STYLED_ITEM ( 'NONE', ( #43 ), #59 ) ;
#50 = PRESENTATION_LAYER_ASSIGNMENT (  '', '', ( #49 ) ) ;
#51 = MECHANICAL_DESIGN_GEOMETRIC_PRESENTATION_REPRESENTATION (  '', ( #49 ), #76 ) ;
#52 = LENGTH_MEASURE_WITH_UNIT ( LENGTH_MEASURE( 0.02539999999999999900 ), #44 );
#53 = AXIS2_PLACEMENT_3D ( 'NONE', #77, #78, #79 ) ;
#54 = PRODUCT_DEFINITION_FORMATION_WITH_SPECIFIED_SOURCE ( 'ANY', '', #26, .NOT_KNOWN. ) ;
#55 = CYLINDRICAL_SURFACE ( 'NONE', #24, 0.5000000000000000000 ) ;
#56 = STYLED_ITEM ( 'NONE', ( #6 ), #85 ) ;
#57 = PRESENTATION_LAYER_ASSIGNMENT (  '', '', ( #56 ) ) ;
#58 = MECHANICAL_DESIGN_GEOMETRIC_PRESENTATION_REPRESENTATION (  '', ( #56 ), #138 ) ;
#59 = ADVANCED_BREP_SHAPE_REPRESENTATION ( 'D250H', ( #85, #53 ), #75 ) ;
#60 = UNCERTAINTY_MEASURE_WITH_UNIT (LENGTH_MEASURE( 1.000000000000000100E-005 ), #35, 'distance_accuracy_value', 'NONE');
#61 = UNCERTAINTY_MEASURE_WITH_UNIT (LENGTH_MEASURE( 1.000000000000000100E-005 ), #45, 'distance_accuracy_value', 'NONE');
#62 = UNCERTAINTY_MEASURE_WITH_UNIT (LENGTH_MEASURE( 1.000000000000000100E-005 ), #8, 'distance_accuracy_value', 'NONE');
#63 = VERTEX_POINT ( 'NONE', #120 ) ;
#64 = VERTEX_POINT ( 'NONE', #121 ) ;
#65 = VERTEX_POINT ( 'NONE', #122 ) ;
#66 = VERTEX_POINT ( 'NONE', #123 ) ;
#67 = EDGE_LOOP ( 'NONE', ( #90, #92, #91, #94 ) ) ;
#68 = EDGE_LOOP ( 'NONE', ( #93, #88, #71, #89 ) ) ;
#69 = EDGE_LOOP ( 'NONE', ( #95, #96 ) ) ;
#70 = EDGE_LOOP ( 'NONE', ( #97, #98 ) ) ;
#71 = ORIENTED_EDGE ( 'NONE', *, *, #30, .T. ) ;
#72 = DIMENSIONAL_EXPONENTS ( 1.000000000000000000, 0.0000000000000000000, 0.0000000000000000000, 0.0000000000000000000, 0.0000000000000000000, 0.0000000000000000000, 0.0000000000000000000 ) ;
#73 = DIMENSIONAL_EXPONENTS ( 1.000000000000000000, 0.0000000000000000000, 0.0000000000000000000, 0.0000000000000000000, 0.0000000000000000000, 0.0000000000000000000, 0.0000000000000000000 ) ;
#74 = DIMENSIONAL_EXPONENTS ( 1.000000000000000000, 0.0000000000000000000, 0.0000000000000000000, 0.0000000000000000000, 0.0000000000000000000, 0.0000000000000000000, 0.0000000000000000000 ) ;
#75 =( GEOMETRIC_REPRESENTATION_CONTEXT ( 3 ) GLOBAL_UNCERTAINTY_ASSIGNED_CONTEXT ( ( #60 ) ) GLOBAL_UNIT_ASSIGNED_CONTEXT ( ( #35, #36, #37 ) ) REPRESENTATION_CONTEXT ( 'NONE', 'WORKASPACE' ) );
#76 =( GEOMETRIC_REPRESENTATION_CONTEXT ( 3 ) GLOBAL_UNCERTAINTY_ASSIGNED_CONTEXT ( ( #61 ) ) GLOBAL_UNIT_ASSIGNED_CONTEXT ( ( #45, #46, #47 ) ) REPRESENTATION_CONTEXT ( 'NONE', 'WORKASPACE' ) );
#77 = CARTESIAN_POINT ( 'NONE',  ( 0.0000000000000000000, 0.0000000000000000000, 0.0000000000000000000 ) ) ;
#78 = DIRECTION ( 'NONE',  ( 0.0000000000000000000, 0.0000000000000000000, 1.000000000000000000 ) ) ;
#79 = DIRECTION ( 'NONE',  ( 1.000000000000000000, 0.0000000000000000000, 0.0000000000000000000 ) ) ;
#80 = SHAPE_DEFINITION_REPRESENTATION ( #84, #59 ) ;
#81 = APPLICATION_PROTOCOL_DEFINITION ( 'draft international standard', 'automotive_design', 1998, #34 ) ;
#82 = PRODUCT_CONTEXT ( 'NONE', #34, 'mechanical' ) ;
#83 = APPLICATION_PROTOCOL_DEFINITION ( 'draft international standard', 'automotive_design', 1998, #33 ) ;
#84 = PRODUCT_DEFINITION_SHAPE ( 'NONE', 'NONE',  #146 ) ;
#85 = MANIFOLD_SOLID_BREP ( 'Boss-Extrude1', #124 ) ;
#86 = PRODUCT_DEFINITION_CONTEXT ( 'detailed design', #33, 'design' ) ;
#87 = EDGE_CURVE ( 'NONE', #64, #66, #119, .T. ) ;
#88 = ORIENTED_EDGE ( 'NONE', *, *, #87, .T. ) ;
#89 = ORIENTED_EDGE ( 'NONE', *, *, #31, .F. ) ;
#90 = ORIENTED_EDGE ( 'NONE', *, *, #87, .F. ) ;
#91 = ORIENTED_EDGE ( 'NONE', *, *, #31, .T. ) ;
#92 = ORIENTED_EDGE ( 'NONE', *, *, #32, .F. ) ;
#93 = ORIENTED_EDGE ( 'NONE', *, *, #139, .F. ) ;
#94 = ORIENTED_EDGE ( 'NONE', *, *, #141, .T. ) ;
#95 = ORIENTED_EDGE ( 'NONE', *, *, #32, .T. ) ;
#96 = ORIENTED_EDGE ( 'NONE', *, *, #139, .T. ) ;
#97 = ORIENTED_EDGE ( 'NONE', *, *, #141, .F. ) ;
#98 = ORIENTED_EDGE ( 'NONE', *, *, #30, .F. ) ;
#99 = PLANE ( 'NONE',  #128 ) ;
#100 = CARTESIAN_POINT ( 'NONE',  ( 0.0000000000000000000, 0.0000000000000000000, 0.0000000000000000000 ) ) ;
#101 = DIRECTION ( 'NONE',  ( 0.0000000000000000000, 1.000000000000000000, 0.0000000000000000000 ) ) ;
#102 = DIRECTION ( 'NONE',  ( 0.0000000000000000000, -0.0000000000000000000, 1.000000000000000000 ) ) ;
#103 = PLANE ( 'NONE',  #129 ) ;
#104 = CARTESIAN_POINT ( 'NONE',  ( 0.0000000000000000000, 0.2500000000000000000, 0.0000000000000000000 ) ) ;
#105 = DIRECTION ( 'NONE',  ( 0.0000000000000000000, 1.000000000000000000, 0.0000000000000000000 ) ) ;
#106 = DIRECTION ( 'NONE',  ( 0.0000000000000000000, -0.0000000000000000000, 1.000000000000000000 ) ) ;
#107 = CARTESIAN_POINT ( 'NONE',  ( 0.0000000000000000000, 0.2500000000000000000, 0.0000000000000000000 ) ) ;
#108 = DIRECTION ( 'NONE',  ( -0.0000000000000000000, -1.000000000000000000, -0.0000000000000000000 ) ) ;
#109 = DIRECTION ( 'NONE',  ( 0.0000000000000000000, 0.0000000000000000000, -1.000000000000000000 ) ) ;
#110 = CARTESIAN_POINT ( 'NONE',  ( 0.0000000000000000000, 0.0000000000000000000, 0.0000000000000000000 ) ) ;
#111 = DIRECTION ( 'NONE',  ( 0.0000000000000000000, 1.000000000000000000, 0.0000000000000000000 ) ) ;
#112 = DIRECTION ( 'NONE',  ( 0.0000000000000000000, 0.0000000000000000000, 1.000000000000000000 ) ) ;
#113 = CARTESIAN_POINT ( 'NONE',  ( 0.0000000000000000000, 0.2500000000000000000, 0.0000000000000000000 ) ) ;
#114 = LINE ( 'NONE', #115, #137 ) ;
#115 = CARTESIAN_POINT ( 'NONE',  ( 0.0000000000000000000, 0.2500000000000000000, -0.5000000000000000000 ) ) ;
#116 = DIRECTION ( 'NONE',  ( -0.0000000000000000000, -1.000000000000000000, -0.0000000000000000000 ) ) ;
#117 = DIRECTION ( 'NONE',  ( 0.0000000000000000000, 1.000000000000000000, 0.0000000000000000000 ) ) ;
#118 = DIRECTION ( 'NONE',  ( 0.0000000000000000000, 0.0000000000000000000, 1.000000000000000000 ) ) ;
#119 = LINE ( 'NONE', #11, #127 ) ;
#120 = CARTESIAN_POINT ( 'NONE',  ( 0.0000000000000000000, 0.0000000000000000000, -0.5000000000000000000 ) ) ;
#121 = CARTESIAN_POINT ( 'NONE',  ( 6.123233995736766000E-017, 0.2500000000000000000, 0.5000000000000000000 ) ) ;
#122 = CARTESIAN_POINT ( 'NONE',  ( 0.0000000000000000000, 0.2500000000000000000, -0.5000000000000000000 ) ) ;
#123 = CARTESIAN_POINT ( 'NONE',  ( 6.123233995736766000E-017, 0.0000000000000000000, 0.5000000000000000000 ) ) ;
#124 = CLOSED_SHELL ( 'NONE', ( #140, #29, #28, #27 ) ) ;
#125 = FACE_OUTER_BOUND ( 'NONE', #69, .T. ) ;
#126 = CYLINDRICAL_SURFACE ( 'NONE', #130, 0.5000000000000000000 ) ;
#127 = VECTOR ( 'NONE', #12, 39.37007874015748100 ) ;
#128 = AXIS2_PLACEMENT_3D ( 'NONE', #100, #101, #102 ) ;
#129 = AXIS2_PLACEMENT_3D ( 'NONE', #104, #105, #106 ) ;
#130 = AXIS2_PLACEMENT_3D ( 'NONE', #107, #108, #109 ) ;
#131 = AXIS2_PLACEMENT_3D ( 'NONE', #110, #111, #112 ) ;
#132 = AXIS2_PLACEMENT_3D ( 'NONE', #19, #20, #21 ) ;
#133 = FACE_OUTER_BOUND ( 'NONE', #68, .T. ) ;
#134 = FACE_OUTER_BOUND ( 'NONE', #70, .T. ) ;
#135 = AXIS2_PLACEMENT_3D ( 'NONE', #113, #117, #118 ) ;
#136 = FACE_OUTER_BOUND ( 'NONE', #67, .T. ) ;
#137 = VECTOR ( 'NONE', #116, 39.37007874015748100 ) ;
#138 =( GEOMETRIC_REPRESENTATION_CONTEXT ( 3 ) GLOBAL_UNCERTAINTY_ASSIGNED_CONTEXT ( ( #62 ) ) GLOBAL_UNIT_ASSIGNED_CONTEXT ( ( #8, #9, #10 ) ) REPRESENTATION_CONTEXT ( 'NONE', 'WORKASPACE' ) );
#139 = EDGE_CURVE ( 'NONE', #64, #65, #144, .T. ) ;
#140 = ADVANCED_FACE ( 'NONE', ( #133 ), #55, .T. ) ;
#141 = EDGE_CURVE ( 'NONE', #63, #66, #147, .T. ) ;
#142 = CIRCLE ( 'NONE', #131, 0.5000000000000000000 ) ;
#143 = CIRCLE ( 'NONE', #135, 0.5000000000000000000 ) ;
#144 = CIRCLE ( 'NONE', #23, 0.5000000000000000000 ) ;
#145 = COLOUR_RGB ( '',0.5686274509803921400, 0.5686274509803921400, 0.5882352941176470800 ) ;
#146 = PRODUCT_DEFINITION ( 'UNKNOWN', '', #54, #86 ) ;
#147 = CIRCLE ( 'NONE', #132, 0.5000000000000000000 ) ;
#148 = COLOUR_RGB ( '',0.5686274509803921400, 0.5686274509803921400, 0.5882352941176470800 ) ;
#149 = PRODUCT_RELATED_PRODUCT_CATEGORY ( 'part', '', ( #26 ) ) ;
ENDSEC;
END-ISO-10303-21;
