ISO-10303-21;
HEADER;
FILE_DESCRIPTION (( 'STEP AP214' ),
    '1' );
FILE_NAME ('D500P.step',
    '2012-04-20T20:56:20',
    ( '' ),
    ( '' ),
    'SwSTEP 2.0',
    'SolidWorks 2012',
    '' );
FILE_SCHEMA (( 'AUTOMOTIVE_DESIGN' ));
ENDSEC;

DATA;
#1 = DIRECTION ( 'NONE',  ( 0.0000000000000000000, 0.0000000000000000000, 1.000000000000000000 ) ) ;
#2 = DIRECTION ( 'NONE',  ( 1.000000000000000000, 0.0000000000000000000, 0.0000000000000000000 ) ) ;
#3 = SHAPE_DEFINITION_REPRESENTATION ( #93, #97 ) ;
#4 = APPLICATION_PROTOCOL_DEFINITION ( 'draft international standard', 'automotive_design', 1998, #67 ) ;
#5 = PRODUCT_CONTEXT ( 'NONE', #67, 'mechanical' ) ;
#6 = APPLICATION_PROTOCOL_DEFINITION ( 'draft international standard', 'automotive_design', 1998, #66 ) ;
#7 =( GEOMETRIC_REPRESENTATION_CONTEXT ( 3 ) GLOBAL_UNCERTAINTY_ASSIGNED_CONTEXT ( ( #98 ) ) GLOBAL_UNIT_ASSIGNED_CONTEXT ( ( #50, #51, #52 ) ) REPRESENTATION_CONTEXT ( 'NONE', 'WORKASPACE' ) );
#8 = ORIENTED_EDGE ( 'NONE', *, *, #37, .F. ) ;
#9 = ORIENTED_EDGE ( 'NONE', *, *, #146, .F. ) ;
#10 = EDGE_LOOP ( 'NONE', ( #142, #143 ) ) ;
#11 = EDGE_LOOP ( 'NONE', ( #8, #9 ) ) ;
#12 = ORIENTED_EDGE ( 'NONE', *, *, #40, .F. ) ;
#13 = CARTESIAN_POINT ( 'NONE',  ( 0.0000000000000000000, 0.5000000000000000000, 0.0000000000000000000 ) ) ;
#14 = DIRECTION ( 'NONE',  ( -0.0000000000000000000, -1.000000000000000000, -0.0000000000000000000 ) ) ;
#15 = DIRECTION ( 'NONE',  ( 0.0000000000000000000, 0.0000000000000000000, -1.000000000000000000 ) ) ;
#16 = CARTESIAN_POINT ( 'NONE',  ( 0.0000000000000000000, 0.0000000000000000000, 0.0000000000000000000 ) ) ;
#17 = DIRECTION ( 'NONE',  ( 0.0000000000000000000, 1.000000000000000000, 0.0000000000000000000 ) ) ;
#18 = DIRECTION ( 'NONE',  ( 0.0000000000000000000, 0.0000000000000000000, 1.000000000000000000 ) ) ;
#19 = CARTESIAN_POINT ( 'NONE',  ( 0.0000000000000000000, 0.5000000000000000000, 0.0000000000000000000 ) ) ;
#20 = DIRECTION ( 'NONE',  ( -0.0000000000000000000, -1.000000000000000000, -0.0000000000000000000 ) ) ;
#21 = DIRECTION ( 'NONE',  ( 0.0000000000000000000, 0.0000000000000000000, -1.000000000000000000 ) ) ;
#22 = LINE ( 'NONE', #23, #123 ) ;
#23 = CARTESIAN_POINT ( 'NONE',  ( 1.224646799147353200E-016, 0.5000000000000000000, 1.000000000000000000 ) ) ;
#24 = DIRECTION ( 'NONE',  ( -0.0000000000000000000, -1.000000000000000000, -0.0000000000000000000 ) ) ;
#25 =( NAMED_UNIT ( * ) PLANE_ANGLE_UNIT ( ) SI_UNIT ( $, .RADIAN. ) );
#26 =( NAMED_UNIT ( * ) SI_UNIT ( $, .STERADIAN. ) SOLID_ANGLE_UNIT ( ) );
#27 = CARTESIAN_POINT ( 'NONE',  ( 1.224646799147353200E-016, 0.0000000000000000000, 1.000000000000000000 ) ) ;
#28 = CARTESIAN_POINT ( 'NONE',  ( 0.0000000000000000000, 0.5000000000000000000, -1.000000000000000000 ) ) ;
#29 = CARTESIAN_POINT ( 'NONE',  ( 0.0000000000000000000, 0.0000000000000000000, -1.000000000000000000 ) ) ;
#30 = CARTESIAN_POINT ( 'NONE',  ( 1.224646799147353200E-016, 0.5000000000000000000, 1.000000000000000000 ) ) ;
#31 = CARTESIAN_POINT ( 'NONE',  ( 0.0000000000000000000, 0.5000000000000000000, 0.0000000000000000000 ) ) ;
#32 = DIRECTION ( 'NONE',  ( 0.0000000000000000000, 1.000000000000000000, 0.0000000000000000000 ) ) ;
#33 = DIRECTION ( 'NONE',  ( 0.0000000000000000000, -0.0000000000000000000, 1.000000000000000000 ) ) ;
#34 = CARTESIAN_POINT ( 'NONE',  ( 0.0000000000000000000, 0.0000000000000000000, 0.0000000000000000000 ) ) ;
#35 = DIRECTION ( 'NONE',  ( 0.0000000000000000000, 1.000000000000000000, 0.0000000000000000000 ) ) ;
#36 = ADVANCED_FACE ( 'NONE', ( #128 ), #119, .T. ) ;
#37 = EDGE_CURVE ( 'NONE', #133, #131, #42, .T. ) ;
#38 = ADVANCED_FACE ( 'NONE', ( #124 ), #118, .T. ) ;
#39 = EDGE_CURVE ( 'NONE', #134, #131, #22, .T. ) ;
#40 = EDGE_CURVE ( 'NONE', #134, #132, #43, .T. ) ;
#41 = COLOUR_RGB ( '',0.5686274509803921400, 0.5686274509803921400, 0.5882352941176470800 ) ;
#42 = CIRCLE ( 'NONE', #117, 1.000000000000000000 ) ;
#43 = CIRCLE ( 'NONE', #120, 1.000000000000000000 ) ;
#44 = COLOUR_RGB ( '',0.5686274509803921400, 0.5686274509803921400, 0.5882352941176470800 ) ;
#45 = CIRCLE ( 'NONE', #81, 1.000000000000000000 ) ;
#46 = CIRCLE ( 'NONE', #85, 1.000000000000000000 ) ;
#47 = PRODUCT_DEFINITION ( 'UNKNOWN', '', #57, #92 ) ;
#48 = PRESENTATION_STYLE_ASSIGNMENT (( #65 ) ) ;
#49 =( LENGTH_UNIT ( ) NAMED_UNIT ( * ) SI_UNIT ( $, .METRE. ) );
#50 =( CONVERSION_BASED_UNIT ( 'INCH', #55 ) LENGTH_UNIT ( ) NAMED_UNIT ( #103 ) );
#51 =( NAMED_UNIT ( * ) PLANE_ANGLE_UNIT ( ) SI_UNIT ( $, .RADIAN. ) );
#52 =( NAMED_UNIT ( * ) SI_UNIT ( $, .STERADIAN. ) SOLID_ANGLE_UNIT ( ) );
#53 = CARTESIAN_POINT ( 'NONE',  ( 0.0000000000000000000, 0.0000000000000000000, 0.0000000000000000000 ) ) ;
#54 = MECHANICAL_DESIGN_GEOMETRIC_PRESENTATION_REPRESENTATION (  '', ( #91 ), #7 ) ;
#55 = LENGTH_MEASURE_WITH_UNIT ( LENGTH_MEASURE( 0.02539999999999999900 ), #49 );
#56 = PRESENTATION_LAYER_ASSIGNMENT (  '', '', ( #91 ) ) ;
#57 = PRODUCT_DEFINITION_FORMATION_WITH_SPECIFIED_SOURCE ( 'ANY', '', #104, .NOT_KNOWN. ) ;
#58 = AXIS2_PLACEMENT_3D ( 'NONE', #53, #1, #2 ) ;
#59 =( NAMED_UNIT ( * ) PLANE_ANGLE_UNIT ( ) SI_UNIT ( $, .RADIAN. ) );
#60 =( NAMED_UNIT ( * ) SI_UNIT ( $, .STERADIAN. ) SOLID_ANGLE_UNIT ( ) );
#61 = FILL_AREA_STYLE_COLOUR ( '', #44 ) ;
#62 = FILL_AREA_STYLE ('',( #61 ) ) ;
#63 = SURFACE_STYLE_FILL_AREA ( #62 ) ;
#64 = SURFACE_SIDE_STYLE ('',( #63 ) ) ;
#65 = SURFACE_STYLE_USAGE ( .BOTH. , #64 ) ;
#66 = APPLICATION_CONTEXT ( 'automotive_design' ) ;
#67 = APPLICATION_CONTEXT ( 'automotive_design' ) ;
#68 = DIRECTION ( 'NONE',  ( 0.0000000000000000000, 0.0000000000000000000, 1.000000000000000000 ) ) ;
#69 = CARTESIAN_POINT ( 'NONE',  ( 0.0000000000000000000, 0.5000000000000000000, 0.0000000000000000000 ) ) ;
#70 = LINE ( 'NONE', #71, #88 ) ;
#71 = CARTESIAN_POINT ( 'NONE',  ( 0.0000000000000000000, 0.5000000000000000000, -1.000000000000000000 ) ) ;
#72 = DIRECTION ( 'NONE',  ( -0.0000000000000000000, -1.000000000000000000, -0.0000000000000000000 ) ) ;
#73 = DIRECTION ( 'NONE',  ( 0.0000000000000000000, 1.000000000000000000, 0.0000000000000000000 ) ) ;
#74 = DIRECTION ( 'NONE',  ( 0.0000000000000000000, 0.0000000000000000000, 1.000000000000000000 ) ) ;
#75 = PLANE ( 'NONE',  #90 ) ;
#76 = CARTESIAN_POINT ( 'NONE',  ( 0.0000000000000000000, 0.0000000000000000000, 0.0000000000000000000 ) ) ;
#77 = DIRECTION ( 'NONE',  ( 0.0000000000000000000, 1.000000000000000000, 0.0000000000000000000 ) ) ;
#78 = DIRECTION ( 'NONE',  ( 0.0000000000000000000, -0.0000000000000000000, 1.000000000000000000 ) ) ;
#79 =( LENGTH_UNIT ( ) NAMED_UNIT ( * ) SI_UNIT ( $, .METRE. ) );
#80 =( CONVERSION_BASED_UNIT ( 'INCH', #89 ) LENGTH_UNIT ( ) NAMED_UNIT ( #102 ) );
#81 = AXIS2_PLACEMENT_3D ( 'NONE', #69, #73, #74 ) ;
#82 = MECHANICAL_DESIGN_GEOMETRIC_PRESENTATION_REPRESENTATION (  '', ( #122 ), #99 ) ;
#83 = LENGTH_MEASURE_WITH_UNIT ( LENGTH_MEASURE( 0.02539999999999999900 ), #115 );
#84 = FACE_OUTER_BOUND ( 'NONE', #10, .T. ) ;
#85 = AXIS2_PLACEMENT_3D ( 'NONE', #34, #35, #68 ) ;
#86 = AXIS2_PLACEMENT_3D ( 'NONE', #31, #32, #33 ) ;
#87 = FACE_OUTER_BOUND ( 'NONE', #11, .T. ) ;
#88 = VECTOR ( 'NONE', #72, 39.37007874015748100 ) ;
#89 = LENGTH_MEASURE_WITH_UNIT ( LENGTH_MEASURE( 0.02539999999999999900 ), #79 );
#90 = AXIS2_PLACEMENT_3D ( 'NONE', #76, #77, #78 ) ;
#91 = STYLED_ITEM ( 'NONE', ( #48 ), #97 ) ;
#92 = PRODUCT_DEFINITION_CONTEXT ( 'detailed design', #66, 'design' ) ;
#93 = PRODUCT_DEFINITION_SHAPE ( 'NONE', 'NONE',  #47 ) ;
#94 = MANIFOLD_SOLID_BREP ( 'Boss-Extrude1', #125 ) ;
#95 = UNCERTAINTY_MEASURE_WITH_UNIT (LENGTH_MEASURE( 1.000000000000000100E-005 ), #80, 'distance_accuracy_value', 'NONE');
#96 = UNCERTAINTY_MEASURE_WITH_UNIT (LENGTH_MEASURE( 1.000000000000000100E-005 ), #116, 'distance_accuracy_value', 'NONE');
#97 = ADVANCED_BREP_SHAPE_REPRESENTATION ( 'D500P', ( #94, #58 ), #100 ) ;
#98 = UNCERTAINTY_MEASURE_WITH_UNIT (LENGTH_MEASURE( 1.000000000000000100E-005 ), #50, 'distance_accuracy_value', 'NONE');
#99 =( GEOMETRIC_REPRESENTATION_CONTEXT ( 3 ) GLOBAL_UNCERTAINTY_ASSIGNED_CONTEXT ( ( #96 ) ) GLOBAL_UNIT_ASSIGNED_CONTEXT ( ( #116, #25, #26 ) ) REPRESENTATION_CONTEXT ( 'NONE', 'WORKASPACE' ) );
#100 =( GEOMETRIC_REPRESENTATION_CONTEXT ( 3 ) GLOBAL_UNCERTAINTY_ASSIGNED_CONTEXT ( ( #95 ) ) GLOBAL_UNIT_ASSIGNED_CONTEXT ( ( #80, #59, #60 ) ) REPRESENTATION_CONTEXT ( 'NONE', 'WORKASPACE' ) );
#101 = DIMENSIONAL_EXPONENTS ( 1.000000000000000000, 0.0000000000000000000, 0.0000000000000000000, 0.0000000000000000000, 0.0000000000000000000, 0.0000000000000000000, 0.0000000000000000000 ) ;
#102 = DIMENSIONAL_EXPONENTS ( 1.000000000000000000, 0.0000000000000000000, 0.0000000000000000000, 0.0000000000000000000, 0.0000000000000000000, 0.0000000000000000000, 0.0000000000000000000 ) ;
#103 = DIMENSIONAL_EXPONENTS ( 1.000000000000000000, 0.0000000000000000000, 0.0000000000000000000, 0.0000000000000000000, 0.0000000000000000000, 0.0000000000000000000, 0.0000000000000000000 ) ;
#104 = PRODUCT ( 'D500P', 'D500P', '', ( #5 ) ) ;
#105 = CARTESIAN_POINT ( 'NONE',  ( 0.0000000000000000000, 0.5000000000000000000, 0.0000000000000000000 ) ) ;
#106 = DIRECTION ( 'NONE',  ( 0.0000000000000000000, 1.000000000000000000, 0.0000000000000000000 ) ) ;
#107 = DIRECTION ( 'NONE',  ( 0.0000000000000000000, 0.0000000000000000000, 1.000000000000000000 ) ) ;
#108 = PLANE ( 'NONE',  #86 ) ;
#109 = FILL_AREA_STYLE_COLOUR ( '', #41 ) ;
#110 = FILL_AREA_STYLE ('',( #109 ) ) ;
#111 = SURFACE_STYLE_FILL_AREA ( #110 ) ;
#112 = SURFACE_SIDE_STYLE ('',( #111 ) ) ;
#113 = SURFACE_STYLE_USAGE ( .BOTH. , #112 ) ;
#114 = PRESENTATION_STYLE_ASSIGNMENT (( #113 ) ) ;
#115 =( LENGTH_UNIT ( ) NAMED_UNIT ( * ) SI_UNIT ( $, .METRE. ) );
#116 =( CONVERSION_BASED_UNIT ( 'INCH', #83 ) LENGTH_UNIT ( ) NAMED_UNIT ( #101 ) );
#117 = AXIS2_PLACEMENT_3D ( 'NONE', #16, #17, #18 ) ;
#118 = CYLINDRICAL_SURFACE ( 'NONE', #127, 1.000000000000000000 ) ;
#119 = CYLINDRICAL_SURFACE ( 'NONE', #121, 1.000000000000000000 ) ;
#120 = AXIS2_PLACEMENT_3D ( 'NONE', #105, #106, #107 ) ;
#121 = AXIS2_PLACEMENT_3D ( 'NONE', #13, #14, #15 ) ;
#122 = STYLED_ITEM ( 'NONE', ( #114 ), #94 ) ;
#123 = VECTOR ( 'NONE', #24, 39.37007874015748100 ) ;
#124 = FACE_OUTER_BOUND ( 'NONE', #130, .T. ) ;
#125 = CLOSED_SHELL ( 'NONE', ( #38, #36, #144, #149 ) ) ;
#126 = PRESENTATION_LAYER_ASSIGNMENT (  '', '', ( #122 ) ) ;
#127 = AXIS2_PLACEMENT_3D ( 'NONE', #19, #20, #21 ) ;
#128 = FACE_OUTER_BOUND ( 'NONE', #129, .T. ) ;
#129 = EDGE_LOOP ( 'NONE', ( #138, #140, #139, #141 ) ) ;
#130 = EDGE_LOOP ( 'NONE', ( #12, #136, #135, #137 ) ) ;
#131 = VERTEX_POINT ( 'NONE', #27 ) ;
#132 = VERTEX_POINT ( 'NONE', #28 ) ;
#133 = VERTEX_POINT ( 'NONE', #29 ) ;
#134 = VERTEX_POINT ( 'NONE', #30 ) ;
#135 = ORIENTED_EDGE ( 'NONE', *, *, #146, .T. ) ;
#136 = ORIENTED_EDGE ( 'NONE', *, *, #39, .T. ) ;
#137 = ORIENTED_EDGE ( 'NONE', *, *, #147, .F. ) ;
#138 = ORIENTED_EDGE ( 'NONE', *, *, #39, .F. ) ;
#139 = ORIENTED_EDGE ( 'NONE', *, *, #147, .T. ) ;
#140 = ORIENTED_EDGE ( 'NONE', *, *, #148, .F. ) ;
#141 = ORIENTED_EDGE ( 'NONE', *, *, #37, .T. ) ;
#142 = ORIENTED_EDGE ( 'NONE', *, *, #148, .T. ) ;
#143 = ORIENTED_EDGE ( 'NONE', *, *, #40, .T. ) ;
#144 = ADVANCED_FACE ( 'NONE', ( #84 ), #108, .T. ) ;
#145 = PRODUCT_RELATED_PRODUCT_CATEGORY ( 'part', '', ( #104 ) ) ;
#146 = EDGE_CURVE ( 'NONE', #131, #133, #46, .T. ) ;
#147 = EDGE_CURVE ( 'NONE', #132, #133, #70, .T. ) ;
#148 = EDGE_CURVE ( 'NONE', #132, #134, #45, .T. ) ;
#149 = ADVANCED_FACE ( 'NONE', ( #87 ), #75, .F. ) ;
ENDSEC;
END-ISO-10303-21;
