ISO-10303-21;
HEADER;
FILE_DESCRIPTION (( 'STEP AP214' ),
    '1' );
FILE_NAME ('DH125D.step',
    '2012-04-20T20:57:03',
    ( '' ),
    ( '' ),
    'SwSTEP 2.0',
    'SolidWorks 2012',
    '' );
FILE_SCHEMA (( 'AUTOMOTIVE_DESIGN' ));
ENDSEC;

DATA;
#1 = UNCERTAINTY_MEASURE_WITH_UNIT (LENGTH_MEASURE( 1.000000000000000100E-005 ), #142, 'distance_accuracy_value', 'NONE');
#2 = UNCERTAINTY_MEASURE_WITH_UNIT (LENGTH_MEASURE( 1.000000000000000100E-005 ), #29, 'distance_accuracy_value', 'NONE');
#3 = UNCERTAINTY_MEASURE_WITH_UNIT (LENGTH_MEASURE( 1.000000000000000100E-005 ), #16, 'distance_accuracy_value', 'NONE');
#4 = ADVANCED_BREP_SHAPE_REPRESENTATION ( 'DH125D', ( #218, #82 ), #263 ) ;
#5 = CARTESIAN_POINT ( 'NONE',  ( 0.0000000000000000000, 0.0000000000000000000, 0.0000000000000000000 ) ) ;
#6 = APPLICATION_PROTOCOL_DEFINITION ( 'draft international standard', 'automotive_design', 1998, #220 ) ;
#7 = PRODUCT_CONTEXT ( 'NONE', #219, 'mechanical' ) ;
#8 =( NAMED_UNIT ( * ) SI_UNIT ( $, .STERADIAN. ) SOLID_ANGLE_UNIT ( ) );
#9 = SHAPE_DEFINITION_REPRESENTATION ( #216, #4 ) ;
#10 =( NAMED_UNIT ( * ) PLANE_ANGLE_UNIT ( ) SI_UNIT ( $, .RADIAN. ) );
#11 = DIRECTION ( 'NONE',  ( 0.0000000000000000000, -1.000000000000000000, -0.0000000000000000000 ) ) ;
#12 = CARTESIAN_POINT ( 'NONE',  ( 0.0000000000000000000, 0.1250000000000000000, 0.0000000000000000000 ) ) ;
#13 = PLANE ( 'NONE',  #95 ) ;
#14 =( LENGTH_UNIT ( ) NAMED_UNIT ( * ) SI_UNIT ( $, .METRE. ) );
#15 = SURFACE_STYLE_USAGE ( .BOTH. , #20 ) ;
#16 =( CONVERSION_BASED_UNIT ( 'INCH', #77 ) LENGTH_UNIT ( ) NAMED_UNIT ( #213 ) );
#17 = FILL_AREA_STYLE ('',( #22 ) ) ;
#18 = PRESENTATION_STYLE_ASSIGNMENT (( #15 ) ) ;
#19 = APPLICATION_PROTOCOL_DEFINITION ( 'draft international standard', 'automotive_design', 1998, #219 ) ;
#20 = SURFACE_SIDE_STYLE ('',( #21 ) ) ;
#21 = SURFACE_STYLE_FILL_AREA ( #17 ) ;
#22 = FILL_AREA_STYLE_COLOUR ( '', #233 ) ;
#23 =( NAMED_UNIT ( * ) SI_UNIT ( $, .STERADIAN. ) SOLID_ANGLE_UNIT ( ) );
#24 = DIRECTION ( 'NONE',  ( 0.0000000000000000000, 0.0000000000000000000, 1.000000000000000000 ) ) ;
#25 = DIRECTION ( 'NONE',  ( 0.0000000000000000000, 0.0000000000000000000, 1.000000000000000000 ) ) ;
#26 = DIRECTION ( 'NONE',  ( 1.000000000000000000, 0.0000000000000000000, 0.0000000000000000000 ) ) ;
#27 =( NAMED_UNIT ( * ) PLANE_ANGLE_UNIT ( ) SI_UNIT ( $, .RADIAN. ) );
#28 =( LENGTH_UNIT ( ) NAMED_UNIT ( * ) SI_UNIT ( $, .METRE. ) );
#29 =( CONVERSION_BASED_UNIT ( 'INCH', #96 ) LENGTH_UNIT ( ) NAMED_UNIT ( #215 ) );
#30 = DIRECTION ( 'NONE',  ( -0.0000000000000000000, -1.000000000000000000, -0.0000000000000000000 ) ) ;
#31 = DIRECTION ( 'NONE',  ( 0.0000000000000000000, 0.0000000000000000000, -1.000000000000000000 ) ) ;
#32 = DIRECTION ( 'NONE',  ( 8.029845638358707400E-017, 0.7550331183926466400, -0.6556866554462396100 ) ) ;
#33 = CARTESIAN_POINT ( 'NONE',  ( 1.836970198721020500E-017, 0.1250000000000000000, -0.1499999999999992200 ) ) ;
#34 = LINE ( 'NONE', #33, #74 ) ;
#35 = DIRECTION ( 'NONE',  ( -0.0000000000000000000, -1.000000000000000000, -0.0000000000000000000 ) ) ;
#36 = CARTESIAN_POINT ( 'NONE',  ( 0.0000000000000000000, 0.0000000000000000000, -0.06749999999999999100 ) ) ;
#37 = DIRECTION ( 'NONE',  ( 0.0000000000000000000, 0.0000000000000000000, -1.000000000000000000 ) ) ;
#38 = LINE ( 'NONE', #36, #76 ) ;
#39 = CARTESIAN_POINT ( 'NONE',  ( 0.0000000000000000000, 0.1250000000000000000, 0.0000000000000000000 ) ) ;
#40 = DIRECTION ( 'NONE',  ( 0.0000000000000000000, 0.0000000000000000000, -1.000000000000000000 ) ) ;
#41 = DIRECTION ( 'NONE',  ( -0.0000000000000000000, -1.000000000000000000, -0.0000000000000000000 ) ) ;
#42 = CARTESIAN_POINT ( 'NONE',  ( 0.0000000000000000000, 0.0000000000000000000, 0.0000000000000000000 ) ) ;
#43 = DIRECTION ( 'NONE',  ( 0.0000000000000000000, 0.0000000000000000000, -1.000000000000000000 ) ) ;
#44 = DIRECTION ( 'NONE',  ( -0.0000000000000000000, -1.000000000000000000, -0.0000000000000000000 ) ) ;
#45 = DIRECTION ( 'NONE',  ( -0.0000000000000000000, -1.000000000000000000, -0.0000000000000000000 ) ) ;
#46 = CARTESIAN_POINT ( 'NONE',  ( 8.266365894244634300E-018, 0.0000000000000000000, 0.06749999999999999100 ) ) ;
#47 = LINE ( 'NONE', #46, #79 ) ;
#48 = DIRECTION ( 'NONE',  ( -0.0000000000000000000, -1.000000000000000000, -0.0000000000000000000 ) ) ;
#49 = CARTESIAN_POINT ( 'NONE',  ( 0.0000000000000000000, 0.0000000000000000000, -0.2500000000000000000 ) ) ;
#50 = LINE ( 'NONE', #49, #81 ) ;
#51 = CARTESIAN_POINT ( 'NONE',  ( 0.0000000000000000000, 0.03000000000000000600, 0.0000000000000000000 ) ) ;
#52 = DIRECTION ( 'NONE',  ( 0.0000000000000000000, 0.0000000000000000000, -1.000000000000000000 ) ) ;
#53 = DIRECTION ( 'NONE',  ( -0.0000000000000000000, -1.000000000000000000, -0.0000000000000000000 ) ) ;
#54 = CARTESIAN_POINT ( 'NONE',  ( 0.0000000000000000000, 0.0000000000000000000, 0.0000000000000000000 ) ) ;
#55 = CARTESIAN_POINT ( 'NONE',  ( 0.0000000000000000000, 0.1250000000000000000, 0.0000000000000000000 ) ) ;
#56 = DIRECTION ( 'NONE',  ( 0.0000000000000000000, 0.0000000000000000000, -1.000000000000000000 ) ) ;
#57 = DIRECTION ( 'NONE',  ( 0.0000000000000000000, -1.000000000000000000, -0.0000000000000000000 ) ) ;
#58 = CARTESIAN_POINT ( 'NONE',  ( 0.0000000000000000000, 0.0000000000000000000, 0.0000000000000000000 ) ) ;
#59 = DIRECTION ( 'NONE',  ( 0.0000000000000000000, 1.000000000000000000, 0.0000000000000000000 ) ) ;
#60 = PLANE ( 'NONE',  #84 ) ;
#61 = DIRECTION ( 'NONE',  ( 0.0000000000000000000, 0.0000000000000000000, -1.000000000000000000 ) ) ;
#62 = DIRECTION ( 'NONE',  ( -0.0000000000000000000, -1.000000000000000000, -0.0000000000000000000 ) ) ;
#63 = CARTESIAN_POINT ( 'NONE',  ( 0.0000000000000000000, 0.0000000000000000000, 0.0000000000000000000 ) ) ;
#64 = DIRECTION ( 'NONE',  ( 0.0000000000000000000, 0.0000000000000000000, -1.000000000000000000 ) ) ;
#65 = DIRECTION ( 'NONE',  ( -0.0000000000000000000, -1.000000000000000000, -0.0000000000000000000 ) ) ;
#66 = CARTESIAN_POINT ( 'NONE',  ( 0.0000000000000000000, 0.0000000000000000000, 0.0000000000000000000 ) ) ;
#67 = DIRECTION ( 'NONE',  ( 0.0000000000000000000, 0.0000000000000000000, 1.000000000000000000 ) ) ;
#68 = DIRECTION ( 'NONE',  ( 0.0000000000000000000, 1.000000000000000000, 0.0000000000000000000 ) ) ;
#69 = CARTESIAN_POINT ( 'NONE',  ( 0.0000000000000000000, 0.1250000000000000000, 0.0000000000000000000 ) ) ;
#70 = DIRECTION ( 'NONE',  ( 0.0000000000000000000, 0.0000000000000000000, -1.000000000000000000 ) ) ;
#71 = MECHANICAL_DESIGN_GEOMETRIC_PRESENTATION_REPRESENTATION (  '', ( #73 ), #261 ) ;
#72 = PRESENTATION_LAYER_ASSIGNMENT (  '', '', ( #73 ) ) ;
#73 = STYLED_ITEM ( 'NONE', ( #18 ), #4 ) ;
#74 = VECTOR ( 'NONE', #32, 39.37007874015748100 ) ;
#75 = FACE_OUTER_BOUND ( 'NONE', #208, .T. ) ;
#76 = VECTOR ( 'NONE', #35, 39.37007874015748100 ) ;
#77 = LENGTH_MEASURE_WITH_UNIT ( LENGTH_MEASURE( 0.02539999999999999900 ), #14 );
#78 = AXIS2_PLACEMENT_3D ( 'NONE', #42, #41, #40 ) ;
#79 = VECTOR ( 'NONE', #45, 39.37007874015748100 ) ;
#80 = AXIS2_PLACEMENT_3D ( 'NONE', #51, #44, #43 ) ;
#81 = VECTOR ( 'NONE', #48, 39.37007874015748100 ) ;
#82 = AXIS2_PLACEMENT_3D ( 'NONE', #5, #24, #26 ) ;
#83 = PRODUCT_DEFINITION_FORMATION_WITH_SPECIFIED_SOURCE ( 'ANY', '', #214, .NOT_KNOWN. ) ;
#84 = AXIS2_PLACEMENT_3D ( 'NONE', #58, #57, #56 ) ;
#85 = CYLINDRICAL_SURFACE ( 'NONE', #105, 0.2500000000000000000 ) ;
#86 = AXIS2_PLACEMENT_3D ( 'NONE', #54, #53, #52 ) ;
#87 = AXIS2_PLACEMENT_3D ( 'NONE', #39, #30, #31 ) ;
#88 = FACE_BOUND ( 'NONE', #202, .T. ) ;
#89 = CYLINDRICAL_SURFACE ( 'NONE', #90, 0.06749999999999999100 ) ;
#90 = AXIS2_PLACEMENT_3D ( 'NONE', #63, #62, #61 ) ;
#91 = FACE_OUTER_BOUND ( 'NONE', #206, .T. ) ;
#92 = CYLINDRICAL_SURFACE ( 'NONE', #93, 0.2500000000000000000 ) ;
#93 = AXIS2_PLACEMENT_3D ( 'NONE', #66, #65, #64 ) ;
#94 = AXIS2_PLACEMENT_3D ( 'NONE', #69, #68, #67 ) ;
#95 = AXIS2_PLACEMENT_3D ( 'NONE', #12, #11, #70 ) ;
#96 = LENGTH_MEASURE_WITH_UNIT ( LENGTH_MEASURE( 0.02539999999999999900 ), #28 );
#97 = AXIS2_PLACEMENT_3D ( 'NONE', #112, #111, #37 ) ;
#98 = FACE_OUTER_BOUND ( 'NONE', #204, .T. ) ;
#99 = FACE_OUTER_BOUND ( 'NONE', #205, .T. ) ;
#100 = FACE_BOUND ( 'NONE', #211, .T. ) ;
#101 = AXIS2_PLACEMENT_3D ( 'NONE', #55, #59, #25 ) ;
#102 = FACE_OUTER_BOUND ( 'NONE', #210, .T. ) ;
#103 = AXIS2_PLACEMENT_3D ( 'NONE', #124, #120, #119 ) ;
#104 = VECTOR ( 'NONE', #121, 39.37007874015748100 ) ;
#105 = AXIS2_PLACEMENT_3D ( 'NONE', #118, #117, #116 ) ;
#106 = FACE_OUTER_BOUND ( 'NONE', #203, .T. ) ;
#107 = CYLINDRICAL_SURFACE ( 'NONE', #97, 0.06749999999999999100 ) ;
#108 = AXIS2_PLACEMENT_3D ( 'NONE', #127, #126, #125 ) ;
#109 = FACE_OUTER_BOUND ( 'NONE', #209, .T. ) ;
#110 = VECTOR ( 'NONE', #113, 39.37007874015748100 ) ;
#111 = DIRECTION ( 'NONE',  ( -0.0000000000000000000, -1.000000000000000000, -0.0000000000000000000 ) ) ;
#112 = CARTESIAN_POINT ( 'NONE',  ( 0.0000000000000000000, 0.0000000000000000000, 0.0000000000000000000 ) ) ;
#113 = DIRECTION ( 'NONE',  ( 0.0000000000000000000, 0.7550331183926466400, 0.6556866554462396100 ) ) ;
#114 = CARTESIAN_POINT ( 'NONE',  ( 0.0000000000000000000, 0.1250000000000000000, 0.1499999999999992200 ) ) ;
#115 = LINE ( 'NONE', #114, #110 ) ;
#116 = DIRECTION ( 'NONE',  ( 0.0000000000000000000, 0.0000000000000000000, -1.000000000000000000 ) ) ;
#117 = DIRECTION ( 'NONE',  ( -0.0000000000000000000, -1.000000000000000000, -0.0000000000000000000 ) ) ;
#118 = CARTESIAN_POINT ( 'NONE',  ( 0.0000000000000000000, 0.0000000000000000000, 0.0000000000000000000 ) ) ;
#119 = DIRECTION ( 'NONE',  ( 0.0000000000000000000, 0.0000000000000000000, -1.000000000000000000 ) ) ;
#120 = DIRECTION ( 'NONE',  ( -0.0000000000000000000, -1.000000000000000000, -0.0000000000000000000 ) ) ;
#121 = DIRECTION ( 'NONE',  ( -0.0000000000000000000, -1.000000000000000000, -0.0000000000000000000 ) ) ;
#122 = CARTESIAN_POINT ( 'NONE',  ( 3.061616997868383000E-017, 0.0000000000000000000, 0.2500000000000000000 ) ) ;
#123 = LINE ( 'NONE', #122, #104 ) ;
#124 = CARTESIAN_POINT ( 'NONE',  ( 0.0000000000000000000, 0.1250000000000000000, 0.0000000000000000000 ) ) ;
#125 = DIRECTION ( 'NONE',  ( 0.0000000000000000000, 0.0000000000000000000, -1.000000000000000000 ) ) ;
#126 = DIRECTION ( 'NONE',  ( -0.0000000000000000000, -1.000000000000000000, -0.0000000000000000000 ) ) ;
#127 = CARTESIAN_POINT ( 'NONE',  ( 0.0000000000000000000, 0.0000000000000000000, 0.0000000000000000000 ) ) ;
#128 = DIRECTION ( 'NONE',  ( 0.0000000000000000000, 0.0000000000000000000, -1.000000000000000000 ) ) ;
#129 = DIRECTION ( 'NONE',  ( -0.0000000000000000000, -1.000000000000000000, -0.0000000000000000000 ) ) ;
#130 = CARTESIAN_POINT ( 'NONE',  ( 0.0000000000000000000, 0.0000000000000000000, 0.0000000000000000000 ) ) ;
#131 = DIRECTION ( 'NONE',  ( 0.0000000000000000000, 0.0000000000000000000, -1.000000000000000000 ) ) ;
#132 = DIRECTION ( 'NONE',  ( -0.0000000000000000000, -1.000000000000000000, -0.0000000000000000000 ) ) ;
#133 = CARTESIAN_POINT ( 'NONE',  ( 0.0000000000000000000, 0.03000000000000000600, 0.0000000000000000000 ) ) ;
#134 = DIRECTION ( 'NONE',  ( 0.0000000000000000000, 0.0000000000000000000, -1.000000000000000000 ) ) ;
#135 = DIRECTION ( 'NONE',  ( -0.0000000000000000000, -1.000000000000000000, -0.0000000000000000000 ) ) ;
#136 = CARTESIAN_POINT ( 'NONE',  ( 0.0000000000000000000, 0.1250000000000000000, 0.0000000000000000000 ) ) ;
#137 = DIRECTION ( 'NONE',  ( 0.0000000000000000000, 0.0000000000000000000, -1.000000000000000000 ) ) ;
#138 = DIRECTION ( 'NONE',  ( -0.0000000000000000000, -1.000000000000000000, -0.0000000000000000000 ) ) ;
#139 = CARTESIAN_POINT ( 'NONE',  ( 0.0000000000000000000, 0.1250000000000000000, 0.0000000000000000000 ) ) ;
#140 =( NAMED_UNIT ( * ) SI_UNIT ( $, .STERADIAN. ) SOLID_ANGLE_UNIT ( ) );
#141 =( NAMED_UNIT ( * ) PLANE_ANGLE_UNIT ( ) SI_UNIT ( $, .RADIAN. ) );
#142 =( CONVERSION_BASED_UNIT ( 'INCH', #269 ) LENGTH_UNIT ( ) NAMED_UNIT ( #212 ) );
#143 =( LENGTH_UNIT ( ) NAMED_UNIT ( * ) SI_UNIT ( $, .METRE. ) );
#144 = PRESENTATION_STYLE_ASSIGNMENT (( #147 ) ) ;
#145 = SURFACE_STYLE_FILL_AREA ( #148 ) ;
#146 = SURFACE_SIDE_STYLE ('',( #145 ) ) ;
#147 = SURFACE_STYLE_USAGE ( .BOTH. , #146 ) ;
#148 = FILL_AREA_STYLE ('',( #149 ) ) ;
#149 = FILL_AREA_STYLE_COLOUR ( '', #222 ) ;
#150 = CARTESIAN_POINT ( 'NONE',  ( 0.0000000000000000000, 0.1250000000000000000, -0.2500000000000000000 ) ) ;
#151 = CARTESIAN_POINT ( 'NONE',  ( 3.061616997868383000E-017, 0.1250000000000000000, 0.2500000000000000000 ) ) ;
#152 = CARTESIAN_POINT ( 'NONE',  ( 3.061616997868383000E-017, 0.0000000000000000000, 0.2500000000000000000 ) ) ;
#153 = CARTESIAN_POINT ( 'NONE',  ( 0.0000000000000000000, 0.0000000000000000000, -0.2500000000000000000 ) ) ;
#154 = CARTESIAN_POINT ( 'NONE',  ( 0.0000000000000000000, 0.03000000000000000600, 0.06749999999999999100 ) ) ;
#155 = CARTESIAN_POINT ( 'NONE',  ( 1.331803394072741700E-017, 0.03000000000000000600, -0.06749999999999999100 ) ) ;
#156 = CARTESIAN_POINT ( 'NONE',  ( 8.266365894244634300E-018, 0.0000000000000000000, 0.06749999999999999100 ) ) ;
#157 = CARTESIAN_POINT ( 'NONE',  ( 0.0000000000000000000, 0.0000000000000000000, -0.06749999999999999100 ) ) ;
#158 = CARTESIAN_POINT ( 'NONE',  ( 1.836970198721020500E-017, 0.1250000000000000000, -0.1499999999999992200 ) ) ;
#159 = CARTESIAN_POINT ( 'NONE',  ( 0.0000000000000000000, 0.1250000000000000000, 0.1499999999999992200 ) ) ;
#160 = ORIENTED_EDGE ( 'NONE', *, *, #253, .F. ) ;
#161 = ORIENTED_EDGE ( 'NONE', *, *, #227, .T. ) ;
#162 = ORIENTED_EDGE ( 'NONE', *, *, #254, .F. ) ;
#163 = ORIENTED_EDGE ( 'NONE', *, *, #256, .F. ) ;
#164 = ORIENTED_EDGE ( 'NONE', *, *, #257, .T. ) ;
#165 = ORIENTED_EDGE ( 'NONE', *, *, #255, .T. ) ;
#166 = ORIENTED_EDGE ( 'NONE', *, *, #258, .F. ) ;
#167 = ORIENTED_EDGE ( 'NONE', *, *, #256, .T. ) ;
#168 = ORIENTED_EDGE ( 'NONE', *, *, #260, .F. ) ;
#169 = ORIENTED_EDGE ( 'NONE', *, *, #259, .T. ) ;
#170 = ORIENTED_EDGE ( 'NONE', *, *, #232, .F. ) ;
#171 = ORIENTED_EDGE ( 'NONE', *, *, #228, .F. ) ;
#172 = ORIENTED_EDGE ( 'NONE', *, *, #259, .F. ) ;
#173 = ORIENTED_EDGE ( 'NONE', *, *, #221, .F. ) ;
#174 = ORIENTED_EDGE ( 'NONE', *, *, #223, .T. ) ;
#175 = ORIENTED_EDGE ( 'NONE', *, *, #260, .T. ) ;
#176 = ORIENTED_EDGE ( 'NONE', *, *, #232, .T. ) ;
#177 = ORIENTED_EDGE ( 'NONE', *, *, #224, .T. ) ;
#178 = ORIENTED_EDGE ( 'NONE', *, *, #225, .T. ) ;
#179 = ORIENTED_EDGE ( 'NONE', *, *, #223, .F. ) ;
#180 = ORIENTED_EDGE ( 'NONE', *, *, #255, .F. ) ;
#181 = ORIENTED_EDGE ( 'NONE', *, *, #224, .F. ) ;
#182 = ORIENTED_EDGE ( 'NONE', *, *, #258, .T. ) ;
#183 = ORIENTED_EDGE ( 'NONE', *, *, #226, .F. ) ;
#184 = ORIENTED_EDGE ( 'NONE', *, *, #253, .T. ) ;
#185 = ORIENTED_EDGE ( 'NONE', *, *, #226, .T. ) ;
#186 = ORIENTED_EDGE ( 'NONE', *, *, #257, .F. ) ;
#187 = ORIENTED_EDGE ( 'NONE', *, *, #228, .T. ) ;
#188 = ORIENTED_EDGE ( 'NONE', *, *, #225, .F. ) ;
#189 = ORIENTED_EDGE ( 'NONE', *, *, #227, .F. ) ;
#190 = ORIENTED_EDGE ( 'NONE', *, *, #221, .T. ) ;
#191 = ORIENTED_EDGE ( 'NONE', *, *, #254, .T. ) ;
#192 = VERTEX_POINT ( 'NONE', #159 ) ;
#193 = VERTEX_POINT ( 'NONE', #158 ) ;
#194 = VERTEX_POINT ( 'NONE', #157 ) ;
#195 = VERTEX_POINT ( 'NONE', #156 ) ;
#196 = VERTEX_POINT ( 'NONE', #155 ) ;
#197 = VERTEX_POINT ( 'NONE', #154 ) ;
#198 = VERTEX_POINT ( 'NONE', #153 ) ;
#199 = VERTEX_POINT ( 'NONE', #152 ) ;
#200 = VERTEX_POINT ( 'NONE', #151 ) ;
#201 = VERTEX_POINT ( 'NONE', #150 ) ;
#202 = EDGE_LOOP ( 'NONE', ( #188, #186 ) ) ;
#203 = EDGE_LOOP ( 'NONE', ( #189, #190, #191, #183 ) ) ;
#204 = EDGE_LOOP ( 'NONE', ( #180, #181, #182, #178 ) ) ;
#205 = EDGE_LOOP ( 'NONE', ( #172, #177, #176, #179 ) ) ;
#206 = EDGE_LOOP ( 'NONE', ( #184, #185 ) ) ;
#207 = EDGE_LOOP ( 'NONE', ( #187, #161, #160, #162 ) ) ;
#208 = EDGE_LOOP ( 'NONE', ( #163, #165, #164, #166 ) ) ;
#209 = EDGE_LOOP ( 'NONE', ( #167, #169, #168, #170 ) ) ;
#210 = EDGE_LOOP ( 'NONE', ( #171, #173 ) ) ;
#211 = EDGE_LOOP ( 'NONE', ( #175, #174 ) ) ;
#212 = DIMENSIONAL_EXPONENTS ( 1.000000000000000000, 0.0000000000000000000, 0.0000000000000000000, 0.0000000000000000000, 0.0000000000000000000, 0.0000000000000000000, 0.0000000000000000000 ) ;
#213 = DIMENSIONAL_EXPONENTS ( 1.000000000000000000, 0.0000000000000000000, 0.0000000000000000000, 0.0000000000000000000, 0.0000000000000000000, 0.0000000000000000000, 0.0000000000000000000 ) ;
#214 = PRODUCT ( 'DH125D', 'DH125D', '', ( #7 ) ) ;
#215 = DIMENSIONAL_EXPONENTS ( 1.000000000000000000, 0.0000000000000000000, 0.0000000000000000000, 0.0000000000000000000, 0.0000000000000000000, 0.0000000000000000000, 0.0000000000000000000 ) ;
#216 = PRODUCT_DEFINITION_SHAPE ( 'NONE', 'NONE',  #231 ) ;
#217 = PRODUCT_DEFINITION_CONTEXT ( 'detailed design', #220, 'design' ) ;
#218 = MANIFOLD_SOLID_BREP ( 'Revolve1', #267 ) ;
#219 = APPLICATION_CONTEXT ( 'automotive_design' ) ;
#220 = APPLICATION_CONTEXT ( 'automotive_design' ) ;
#221 = EDGE_CURVE ( 'NONE', #200, #201, #245, .T. ) ;
#222 = COLOUR_RGB ( '',0.5686274509803921400, 0.5686274509803921400, 0.5882352941176470800 ) ;
#223 = EDGE_CURVE ( 'NONE', #193, #192, #242, .T. ) ;
#224 = EDGE_CURVE ( 'NONE', #196, #197, #243, .T. ) ;
#225 = EDGE_CURVE ( 'NONE', #194, #195, #244, .T. ) ;
#226 = EDGE_CURVE ( 'NONE', #199, #198, #241, .T. ) ;
#227 = EDGE_CURVE ( 'NONE', #200, #199, #123, .T. ) ;
#228 = EDGE_CURVE ( 'NONE', #201, #200, #240, .T. ) ;
#229 = ADVANCED_FACE ( 'NONE', ( #271 ), #85, .T. ) ;
#230 = PRODUCT_RELATED_PRODUCT_CATEGORY ( 'part', '', ( #214 ) ) ;
#231 = PRODUCT_DEFINITION ( 'UNKNOWN', '', #83, #217 ) ;
#232 = EDGE_CURVE ( 'NONE', #197, #192, #115, .T. ) ;
#233 = COLOUR_RGB ( '',0.5686274509803921400, 0.5686274509803921400, 0.5882352941176470800 ) ;
#234 = CIRCLE ( 'NONE', #87, 0.1499999999999992200 ) ;
#235 = CIRCLE ( 'NONE', #78, 0.06749999999999999100 ) ;
#236 = CIRCLE ( 'NONE', #86, 0.2500000000000000000 ) ;
#237 = CONICAL_SURFACE ( 'NONE', #94, 0.1499999999999992200, 0.7150916992788192200 ) ;
#238 = CIRCLE ( 'NONE', #80, 0.06749999999999999100 ) ;
#239 = CONICAL_SURFACE ( 'NONE', #101, 0.1499999999999992200, 0.7150916992788192200 ) ;
#240 = CIRCLE ( 'NONE', #103, 0.2500000000000000000 ) ;
#241 = CIRCLE ( 'NONE', #108, 0.2500000000000000000 ) ;
#242 = CIRCLE ( 'NONE', #265, 0.1499999999999992200 ) ;
#243 = CIRCLE ( 'NONE', #264, 0.06749999999999999100 ) ;
#244 = CIRCLE ( 'NONE', #273, 0.06749999999999999100 ) ;
#245 = CIRCLE ( 'NONE', #268, 0.2500000000000000000 ) ;
#246 = ADVANCED_FACE ( 'NONE', ( #75 ), #107, .F. ) ;
#247 = ADVANCED_FACE ( 'NONE', ( #109 ), #239, .F. ) ;
#248 = ADVANCED_FACE ( 'NONE', ( #102, #100 ), #13, .F. ) ;
#249 = ADVANCED_FACE ( 'NONE', ( #99 ), #237, .F. ) ;
#250 = ADVANCED_FACE ( 'NONE', ( #106 ), #92, .T. ) ;
#251 = ADVANCED_FACE ( 'NONE', ( #98 ), #89, .F. ) ;
#252 = ADVANCED_FACE ( 'NONE', ( #91, #88 ), #60, .T. ) ;
#253 = EDGE_CURVE ( 'NONE', #198, #199, #236, .T. ) ;
#254 = EDGE_CURVE ( 'NONE', #201, #198, #50, .T. ) ;
#255 = EDGE_CURVE ( 'NONE', #197, #195, #47, .T. ) ;
#256 = EDGE_CURVE ( 'NONE', #197, #196, #238, .T. ) ;
#257 = EDGE_CURVE ( 'NONE', #195, #194, #235, .T. ) ;
#258 = EDGE_CURVE ( 'NONE', #196, #194, #38, .T. ) ;
#259 = EDGE_CURVE ( 'NONE', #196, #193, #34, .T. ) ;
#260 = EDGE_CURVE ( 'NONE', #192, #193, #234, .T. ) ;
#261 =( GEOMETRIC_REPRESENTATION_CONTEXT ( 3 ) GLOBAL_UNCERTAINTY_ASSIGNED_CONTEXT ( ( #3 ) ) GLOBAL_UNIT_ASSIGNED_CONTEXT ( ( #16, #10, #8 ) ) REPRESENTATION_CONTEXT ( 'NONE', 'WORKASPACE' ) );
#262 =( GEOMETRIC_REPRESENTATION_CONTEXT ( 3 ) GLOBAL_UNCERTAINTY_ASSIGNED_CONTEXT ( ( #1 ) ) GLOBAL_UNIT_ASSIGNED_CONTEXT ( ( #142, #141, #140 ) ) REPRESENTATION_CONTEXT ( 'NONE', 'WORKASPACE' ) );
#263 =( GEOMETRIC_REPRESENTATION_CONTEXT ( 3 ) GLOBAL_UNCERTAINTY_ASSIGNED_CONTEXT ( ( #2 ) ) GLOBAL_UNIT_ASSIGNED_CONTEXT ( ( #29, #27, #23 ) ) REPRESENTATION_CONTEXT ( 'NONE', 'WORKASPACE' ) );
#264 = AXIS2_PLACEMENT_3D ( 'NONE', #133, #132, #131 ) ;
#265 = AXIS2_PLACEMENT_3D ( 'NONE', #136, #135, #134 ) ;
#266 = STYLED_ITEM ( 'NONE', ( #144 ), #218 ) ;
#267 = CLOSED_SHELL ( 'NONE', ( #229, #246, #247, #248, #249, #251, #252, #250 ) ) ;
#268 = AXIS2_PLACEMENT_3D ( 'NONE', #139, #138, #137 ) ;
#269 = LENGTH_MEASURE_WITH_UNIT ( LENGTH_MEASURE( 0.02539999999999999900 ), #143 );
#270 = MECHANICAL_DESIGN_GEOMETRIC_PRESENTATION_REPRESENTATION (  '', ( #266 ), #262 ) ;
#271 = FACE_OUTER_BOUND ( 'NONE', #207, .T. ) ;
#272 = PRESENTATION_LAYER_ASSIGNMENT (  '', '', ( #266 ) ) ;
#273 = AXIS2_PLACEMENT_3D ( 'NONE', #130, #129, #128 ) ;
ENDSEC;
END-ISO-10303-21;
