ISO-10303-21;
HEADER;
FILE_DESCRIPTION (( 'STEP AP214' ),
    '1' );
FILE_NAME ('DH250D.step',
    '2012-04-20T20:57:24',
    ( '' ),
    ( '' ),
    'SwSTEP 2.0',
    'SolidWorks 2012',
    '' );
FILE_SCHEMA (( 'AUTOMOTIVE_DESIGN' ));
ENDSEC;

DATA;
#1 = EDGE_CURVE ( 'NONE', #144, #150, #129, .T. ) ;
#2 = EDGE_CURVE ( 'NONE', #144, #145, #200, .T. ) ;
#3 = EDGE_CURVE ( 'NONE', #150, #151, #10, .T. ) ;
#4 = ADVANCED_FACE ( 'NONE', ( #214 ), #217, .F. ) ;
#5 = ADVANCED_FACE ( 'NONE', ( #216 ), #212, .T. ) ;
#6 = ADVANCED_FACE ( 'NONE', ( #220, #223 ), #114, .F. ) ;
#7 = ADVANCED_FACE ( 'NONE', ( #32, #221 ), #110, .T. ) ;
#8 = ADVANCED_FACE ( 'NONE', ( #209 ), #31, .T. ) ;
#9 = ADVANCED_FACE ( 'NONE', ( #26 ), #28, .F. ) ;
#10 = CIRCLE ( 'NONE', #213, 0.2500000000000000000 ) ;
#11 = LENGTH_MEASURE_WITH_UNIT ( LENGTH_MEASURE( 0.02539999999999999900 ), #64 );
#12 = VECTOR ( 'NONE', #76, 39.37007874015748100 ) ;
#13 = AXIS2_PLACEMENT_3D ( 'NONE', #48, #75, #74 ) ;
#14 = VECTOR ( 'NONE', #37, 39.37007874015748100 ) ;
#15 = AXIS2_PLACEMENT_3D ( 'NONE', #43, #36, #35 ) ;
#16 = AXIS2_PLACEMENT_3D ( 'NONE', #73, #72, #71 ) ;
#17 = VECTOR ( 'NONE', #78, 39.37007874015748100 ) ;
#18 = AXIS2_PLACEMENT_3D ( 'NONE', #70, #69, #68 ) ;
#19 = STYLED_ITEM ( 'NONE', ( #54 ), #181 ) ;
#20 = AXIS2_PLACEMENT_3D ( 'NONE', #67, #66, #65 ) ;
#21 = AXIS2_PLACEMENT_3D ( 'NONE', #81, #82, #77 ) ;
#22 = MECHANICAL_DESIGN_GEOMETRIC_PRESENTATION_REPRESENTATION (  '', ( #19 ), #186 ) ;
#23 = PRESENTATION_LAYER_ASSIGNMENT (  '', '', ( #19 ) ) ;
#24 = LENGTH_MEASURE_WITH_UNIT ( LENGTH_MEASURE( 0.02539999999999999900 ), #86 );
#25 = MECHANICAL_DESIGN_GEOMETRIC_PRESENTATION_REPRESENTATION (  '', ( #218 ), #187 ) ;
#26 = FACE_OUTER_BOUND ( 'NONE', #166, .T. ) ;
#27 = AXIS2_PLACEMENT_3D ( 'NONE', #113, #112, #111 ) ;
#28 = CYLINDRICAL_SURFACE ( 'NONE', #29, 0.06749999999999999100 ) ;
#29 = AXIS2_PLACEMENT_3D ( 'NONE', #103, #102, #101 ) ;
#30 = PRESENTATION_LAYER_ASSIGNMENT (  '', '', ( #218 ) ) ;
#31 = CYLINDRICAL_SURFACE ( 'NONE', #33, 0.2500000000000000000 ) ;
#32 = FACE_OUTER_BOUND ( 'NONE', #165, .T. ) ;
#33 = AXIS2_PLACEMENT_3D ( 'NONE', #106, #105, #104 ) ;
#34 = LENGTH_MEASURE_WITH_UNIT ( LENGTH_MEASURE( 0.02539999999999999900 ), #53 );
#35 = DIRECTION ( 'NONE',  ( 1.000000000000000000, 0.0000000000000000000, 0.0000000000000000000 ) ) ;
#36 = DIRECTION ( 'NONE',  ( 0.0000000000000000000, 0.0000000000000000000, 1.000000000000000000 ) ) ;
#37 = DIRECTION ( 'NONE',  ( -0.0000000000000000000, -0.0000000000000000000, -1.000000000000000000 ) ) ;
#38 = APPLICATION_PROTOCOL_DEFINITION ( 'draft international standard', 'automotive_design', 1998, #178 ) ;
#39 = PRODUCT_CONTEXT ( 'NONE', #177, 'mechanical' ) ;
#40 = SHAPE_DEFINITION_REPRESENTATION ( #175, #181 ) ;
#41 = CARTESIAN_POINT ( 'NONE',  ( 0.06749999999999999100, 8.266365894244634300E-018, 0.2500000000000000000 ) ) ;
#42 = LINE ( 'NONE', #41, #14 ) ;
#43 = CARTESIAN_POINT ( 'NONE',  ( 0.0000000000000000000, 0.0000000000000000000, 0.2500000000000000000 ) ) ;
#44 = LINE ( 'NONE', #45, #12 ) ;
#45 = CARTESIAN_POINT ( 'NONE',  ( -0.2500000000000000000, 0.0000000000000000000, 0.2500000000000000000 ) ) ;
#46 = DIRECTION ( 'NONE',  ( 0.0000000000000000000, 0.0000000000000000000, 1.000000000000000000 ) ) ;
#47 = CARTESIAN_POINT ( 'NONE',  ( 0.0000000000000000000, 0.0000000000000000000, 0.0000000000000000000 ) ) ;
#48 = CARTESIAN_POINT ( 'NONE',  ( 0.0000000000000000000, 0.0000000000000000000, 0.2500000000000000000 ) ) ;
#49 = DIRECTION ( 'NONE',  ( 1.000000000000000000, 0.0000000000000000000, 0.0000000000000000000 ) ) ;
#50 =( NAMED_UNIT ( * ) SI_UNIT ( $, .STERADIAN. ) SOLID_ANGLE_UNIT ( ) );
#51 =( NAMED_UNIT ( * ) PLANE_ANGLE_UNIT ( ) SI_UNIT ( $, .RADIAN. ) );
#52 =( CONVERSION_BASED_UNIT ( 'INCH', #34 ) LENGTH_UNIT ( ) NAMED_UNIT ( #172 ) );
#53 =( LENGTH_UNIT ( ) NAMED_UNIT ( * ) SI_UNIT ( $, .METRE. ) );
#54 = PRESENTATION_STYLE_ASSIGNMENT (( #55 ) ) ;
#55 = SURFACE_STYLE_USAGE ( .BOTH. , #56 ) ;
#56 = SURFACE_SIDE_STYLE ('',( #57 ) ) ;
#57 = SURFACE_STYLE_FILL_AREA ( #58 ) ;
#58 = FILL_AREA_STYLE ('',( #59 ) ) ;
#59 = FILL_AREA_STYLE_COLOUR ( '', #195 ) ;
#60 = APPLICATION_PROTOCOL_DEFINITION ( 'draft international standard', 'automotive_design', 1998, #177 ) ;
#61 =( NAMED_UNIT ( * ) SI_UNIT ( $, .STERADIAN. ) SOLID_ANGLE_UNIT ( ) );
#62 =( NAMED_UNIT ( * ) PLANE_ANGLE_UNIT ( ) SI_UNIT ( $, .RADIAN. ) );
#63 =( CONVERSION_BASED_UNIT ( 'INCH', #11 ) LENGTH_UNIT ( ) NAMED_UNIT ( #170 ) );
#64 =( LENGTH_UNIT ( ) NAMED_UNIT ( * ) SI_UNIT ( $, .METRE. ) );
#65 = DIRECTION ( 'NONE',  ( 1.000000000000000000, 0.0000000000000000000, 0.0000000000000000000 ) ) ;
#66 = DIRECTION ( 'NONE',  ( 0.0000000000000000000, 0.0000000000000000000, 1.000000000000000000 ) ) ;
#67 = CARTESIAN_POINT ( 'NONE',  ( 0.0000000000000000000, 0.0000000000000000000, 0.0000000000000000000 ) ) ;
#68 = DIRECTION ( 'NONE',  ( 1.000000000000000000, 0.0000000000000000000, 0.0000000000000000000 ) ) ;
#69 = DIRECTION ( 'NONE',  ( 0.0000000000000000000, 0.0000000000000000000, 1.000000000000000000 ) ) ;
#70 = CARTESIAN_POINT ( 'NONE',  ( 0.0000000000000000000, 0.0000000000000000000, 0.0000000000000000000 ) ) ;
#71 = DIRECTION ( 'NONE',  ( 1.000000000000000000, 0.0000000000000000000, 0.0000000000000000000 ) ) ;
#72 = DIRECTION ( 'NONE',  ( 0.0000000000000000000, 0.0000000000000000000, 1.000000000000000000 ) ) ;
#73 = CARTESIAN_POINT ( 'NONE',  ( 0.0000000000000000000, 0.0000000000000000000, 0.2500000000000000000 ) ) ;
#74 = DIRECTION ( 'NONE',  ( 1.000000000000000000, 0.0000000000000000000, 0.0000000000000000000 ) ) ;
#75 = DIRECTION ( 'NONE',  ( 0.0000000000000000000, 0.0000000000000000000, 1.000000000000000000 ) ) ;
#76 = DIRECTION ( 'NONE',  ( -0.0000000000000000000, -0.0000000000000000000, -1.000000000000000000 ) ) ;
#77 = DIRECTION ( 'NONE',  ( 1.000000000000000000, 0.0000000000000000000, 0.0000000000000000000 ) ) ;
#78 = DIRECTION ( 'NONE',  ( -0.0000000000000000000, -0.0000000000000000000, -1.000000000000000000 ) ) ;
#79 = CARTESIAN_POINT ( 'NONE',  ( -0.06749999999999999100, 0.0000000000000000000, 0.2500000000000000000 ) ) ;
#80 = LINE ( 'NONE', #79, #17 ) ;
#81 = CARTESIAN_POINT ( 'NONE',  ( 0.0000000000000000000, 0.0000000000000000000, 0.0000000000000000000 ) ) ;
#82 = DIRECTION ( 'NONE',  ( 0.0000000000000000000, 0.0000000000000000000, 1.000000000000000000 ) ) ;
#83 =( NAMED_UNIT ( * ) SI_UNIT ( $, .STERADIAN. ) SOLID_ANGLE_UNIT ( ) );
#84 =( NAMED_UNIT ( * ) PLANE_ANGLE_UNIT ( ) SI_UNIT ( $, .RADIAN. ) );
#85 =( CONVERSION_BASED_UNIT ( 'INCH', #24 ) LENGTH_UNIT ( ) NAMED_UNIT ( #171 ) );
#86 =( LENGTH_UNIT ( ) NAMED_UNIT ( * ) SI_UNIT ( $, .METRE. ) );
#87 = PRESENTATION_STYLE_ASSIGNMENT (( #88 ) ) ;
#88 = SURFACE_STYLE_USAGE ( .BOTH. , #89 ) ;
#89 = SURFACE_SIDE_STYLE ('',( #90 ) ) ;
#90 = SURFACE_STYLE_FILL_AREA ( #91 ) ;
#91 = FILL_AREA_STYLE ('',( #92 ) ) ;
#92 = FILL_AREA_STYLE_COLOUR ( '', #190 ) ;
#93 = CARTESIAN_POINT ( 'NONE',  ( -0.2500000000000000000, 0.0000000000000000000, 0.0000000000000000000 ) ) ;
#94 = CARTESIAN_POINT ( 'NONE',  ( 0.2500000000000000000, 3.061616997868383000E-017, 0.0000000000000000000 ) ) ;
#95 = CARTESIAN_POINT ( 'NONE',  ( 0.06749999999999999100, 8.266365894244634300E-018, 0.0000000000000000000 ) ) ;
#96 = CARTESIAN_POINT ( 'NONE',  ( 0.06749999999999999100, 8.266365894244634300E-018, 0.2500000000000000000 ) ) ;
#97 = CARTESIAN_POINT ( 'NONE',  ( -0.06749999999999999100, 0.0000000000000000000, 0.2500000000000000000 ) ) ;
#98 = CARTESIAN_POINT ( 'NONE',  ( -0.06749999999999999100, 0.0000000000000000000, 0.0000000000000000000 ) ) ;
#99 = CARTESIAN_POINT ( 'NONE',  ( -0.2500000000000000000, 0.0000000000000000000, 0.2500000000000000000 ) ) ;
#100 = CARTESIAN_POINT ( 'NONE',  ( 0.2500000000000000000, 3.061616997868383000E-017, 0.2500000000000000000 ) ) ;
#101 = DIRECTION ( 'NONE',  ( -1.000000000000000000, 0.0000000000000000000, 0.0000000000000000000 ) ) ;
#102 = DIRECTION ( 'NONE',  ( -0.0000000000000000000, -0.0000000000000000000, -1.000000000000000000 ) ) ;
#103 = CARTESIAN_POINT ( 'NONE',  ( 0.0000000000000000000, 0.0000000000000000000, 0.2500000000000000000 ) ) ;
#104 = DIRECTION ( 'NONE',  ( -1.000000000000000000, 0.0000000000000000000, 0.0000000000000000000 ) ) ;
#105 = DIRECTION ( 'NONE',  ( -0.0000000000000000000, -0.0000000000000000000, -1.000000000000000000 ) ) ;
#106 = CARTESIAN_POINT ( 'NONE',  ( 0.0000000000000000000, 0.0000000000000000000, 0.2500000000000000000 ) ) ;
#107 = DIRECTION ( 'NONE',  ( 1.000000000000000000, 0.0000000000000000000, -0.0000000000000000000 ) ) ;
#108 = DIRECTION ( 'NONE',  ( 0.0000000000000000000, 0.0000000000000000000, 1.000000000000000000 ) ) ;
#109 = CARTESIAN_POINT ( 'NONE',  ( 0.0000000000000000000, 0.0000000000000000000, 0.2500000000000000000 ) ) ;
#110 = PLANE ( 'NONE',  #208 ) ;
#111 = DIRECTION ( 'NONE',  ( 1.000000000000000000, 0.0000000000000000000, -0.0000000000000000000 ) ) ;
#112 = DIRECTION ( 'NONE',  ( 0.0000000000000000000, 0.0000000000000000000, 1.000000000000000000 ) ) ;
#113 = CARTESIAN_POINT ( 'NONE',  ( 0.0000000000000000000, 0.0000000000000000000, 0.0000000000000000000 ) ) ;
#114 = PLANE ( 'NONE',  #27 ) ;
#115 = DIRECTION ( 'NONE',  ( -1.000000000000000000, 0.0000000000000000000, 0.0000000000000000000 ) ) ;
#116 = DIRECTION ( 'NONE',  ( -0.0000000000000000000, -0.0000000000000000000, -1.000000000000000000 ) ) ;
#117 = CARTESIAN_POINT ( 'NONE',  ( 0.0000000000000000000, 0.0000000000000000000, 0.2500000000000000000 ) ) ;
#118 = DIRECTION ( 'NONE',  ( -1.000000000000000000, 0.0000000000000000000, 0.0000000000000000000 ) ) ;
#119 = DIRECTION ( 'NONE',  ( -0.0000000000000000000, -0.0000000000000000000, -1.000000000000000000 ) ) ;
#120 = CARTESIAN_POINT ( 'NONE',  ( 0.0000000000000000000, 0.0000000000000000000, 0.2500000000000000000 ) ) ;
#121 = DIRECTION ( 'NONE',  ( 1.000000000000000000, 0.0000000000000000000, 0.0000000000000000000 ) ) ;
#122 = DIRECTION ( 'NONE',  ( 0.0000000000000000000, 0.0000000000000000000, 1.000000000000000000 ) ) ;
#123 = CARTESIAN_POINT ( 'NONE',  ( 0.0000000000000000000, 0.0000000000000000000, 0.0000000000000000000 ) ) ;
#124 = DIRECTION ( 'NONE',  ( 1.000000000000000000, 0.0000000000000000000, 0.0000000000000000000 ) ) ;
#125 = DIRECTION ( 'NONE',  ( 0.0000000000000000000, 0.0000000000000000000, 1.000000000000000000 ) ) ;
#126 = CARTESIAN_POINT ( 'NONE',  ( 0.0000000000000000000, 0.0000000000000000000, 0.2500000000000000000 ) ) ;
#127 = DIRECTION ( 'NONE',  ( -0.0000000000000000000, -0.0000000000000000000, -1.000000000000000000 ) ) ;
#128 = CARTESIAN_POINT ( 'NONE',  ( 0.2500000000000000000, 3.061616997868383000E-017, 0.2500000000000000000 ) ) ;
#129 = LINE ( 'NONE', #128, #210 ) ;
#130 = ORIENTED_EDGE ( 'NONE', *, *, #203, .F. ) ;
#131 = ORIENTED_EDGE ( 'NONE', *, *, #1, .T. ) ;
#132 = ORIENTED_EDGE ( 'NONE', *, *, #3, .T. ) ;
#133 = ORIENTED_EDGE ( 'NONE', *, *, #2, .F. ) ;
#134 = ORIENTED_EDGE ( 'NONE', *, *, #198, .F. ) ;
#135 = ORIENTED_EDGE ( 'NONE', *, *, #201, .T. ) ;
#136 = ORIENTED_EDGE ( 'NONE', *, *, #207, .F. ) ;
#137 = ORIENTED_EDGE ( 'NONE', *, *, #3, .F. ) ;
#138 = ORIENTED_EDGE ( 'NONE', *, *, #207, .T. ) ;
#139 = ORIENTED_EDGE ( 'NONE', *, *, #205, .F. ) ;
#140 = ORIENTED_EDGE ( 'NONE', *, *, #2, .T. ) ;
#141 = ORIENTED_EDGE ( 'NONE', *, *, #206, .F. ) ;
#142 = ORIENTED_EDGE ( 'NONE', *, *, #202, .F. ) ;
#143 = ORIENTED_EDGE ( 'NONE', *, *, #204, .T. ) ;
#144 = VERTEX_POINT ( 'NONE', #100 ) ;
#145 = VERTEX_POINT ( 'NONE', #99 ) ;
#146 = VERTEX_POINT ( 'NONE', #98 ) ;
#147 = VERTEX_POINT ( 'NONE', #97 ) ;
#148 = VERTEX_POINT ( 'NONE', #96 ) ;
#149 = VERTEX_POINT ( 'NONE', #95 ) ;
#150 = VERTEX_POINT ( 'NONE', #94 ) ;
#151 = VERTEX_POINT ( 'NONE', #93 ) ;
#152 = ORIENTED_EDGE ( 'NONE', *, *, #202, .T. ) ;
#153 = ORIENTED_EDGE ( 'NONE', *, *, #198, .T. ) ;
#154 = ORIENTED_EDGE ( 'NONE', *, *, #205, .T. ) ;
#155 = ORIENTED_EDGE ( 'NONE', *, *, #201, .F. ) ;
#156 = ORIENTED_EDGE ( 'NONE', *, *, #199, .F. ) ;
#157 = ORIENTED_EDGE ( 'NONE', *, *, #203, .T. ) ;
#158 = ORIENTED_EDGE ( 'NONE', *, *, #204, .F. ) ;
#159 = ORIENTED_EDGE ( 'NONE', *, *, #1, .F. ) ;
#160 = ORIENTED_EDGE ( 'NONE', *, *, #206, .T. ) ;
#161 = ORIENTED_EDGE ( 'NONE', *, *, #199, .T. ) ;
#162 = EDGE_LOOP ( 'NONE', ( #138, #161 ) ) ;
#163 = EDGE_LOOP ( 'NONE', ( #159, #158, #157, #160 ) ) ;
#164 = EDGE_LOOP ( 'NONE', ( #155, #154, #153, #156 ) ) ;
#165 = EDGE_LOOP ( 'NONE', ( #143, #140 ) ) ;
#166 = EDGE_LOOP ( 'NONE', ( #152, #135, #136, #134 ) ) ;
#167 = EDGE_LOOP ( 'NONE', ( #133, #131, #132, #130 ) ) ;
#168 = EDGE_LOOP ( 'NONE', ( #142, #139 ) ) ;
#169 = EDGE_LOOP ( 'NONE', ( #141, #137 ) ) ;
#170 = DIMENSIONAL_EXPONENTS ( 1.000000000000000000, 0.0000000000000000000, 0.0000000000000000000, 0.0000000000000000000, 0.0000000000000000000, 0.0000000000000000000, 0.0000000000000000000 ) ;
#171 = DIMENSIONAL_EXPONENTS ( 1.000000000000000000, 0.0000000000000000000, 0.0000000000000000000, 0.0000000000000000000, 0.0000000000000000000, 0.0000000000000000000, 0.0000000000000000000 ) ;
#172 = DIMENSIONAL_EXPONENTS ( 1.000000000000000000, 0.0000000000000000000, 0.0000000000000000000, 0.0000000000000000000, 0.0000000000000000000, 0.0000000000000000000, 0.0000000000000000000 ) ;
#173 = PRODUCT ( 'DH250D', 'DH250D', '', ( #39 ) ) ;
#174 = PRODUCT_DEFINITION_CONTEXT ( 'detailed design', #178, 'design' ) ;
#175 = PRODUCT_DEFINITION_SHAPE ( 'NONE', 'NONE',  #196 ) ;
#176 = MANIFOLD_SOLID_BREP ( 'Boss-Extrude1', #219 ) ;
#177 = APPLICATION_CONTEXT ( 'automotive_design' ) ;
#178 = APPLICATION_CONTEXT ( 'automotive_design' ) ;
#179 = UNCERTAINTY_MEASURE_WITH_UNIT (LENGTH_MEASURE( 1.000000000000000100E-005 ), #85, 'distance_accuracy_value', 'NONE');
#180 = UNCERTAINTY_MEASURE_WITH_UNIT (LENGTH_MEASURE( 1.000000000000000100E-005 ), #63, 'distance_accuracy_value', 'NONE');
#181 = ADVANCED_BREP_SHAPE_REPRESENTATION ( 'DH250D', ( #176, #183 ), #185 ) ;
#182 = UNCERTAINTY_MEASURE_WITH_UNIT (LENGTH_MEASURE( 1.000000000000000100E-005 ), #52, 'distance_accuracy_value', 'NONE');
#183 = AXIS2_PLACEMENT_3D ( 'NONE', #47, #46, #49 ) ;
#184 = PRODUCT_DEFINITION_FORMATION_WITH_SPECIFIED_SOURCE ( 'ANY', '', #173, .NOT_KNOWN. ) ;
#185 =( GEOMETRIC_REPRESENTATION_CONTEXT ( 3 ) GLOBAL_UNCERTAINTY_ASSIGNED_CONTEXT ( ( #180 ) ) GLOBAL_UNIT_ASSIGNED_CONTEXT ( ( #63, #62, #61 ) ) REPRESENTATION_CONTEXT ( 'NONE', 'WORKASPACE' ) );
#186 =( GEOMETRIC_REPRESENTATION_CONTEXT ( 3 ) GLOBAL_UNCERTAINTY_ASSIGNED_CONTEXT ( ( #182 ) ) GLOBAL_UNIT_ASSIGNED_CONTEXT ( ( #52, #51, #50 ) ) REPRESENTATION_CONTEXT ( 'NONE', 'WORKASPACE' ) );
#187 =( GEOMETRIC_REPRESENTATION_CONTEXT ( 3 ) GLOBAL_UNCERTAINTY_ASSIGNED_CONTEXT ( ( #179 ) ) GLOBAL_UNIT_ASSIGNED_CONTEXT ( ( #85, #84, #83 ) ) REPRESENTATION_CONTEXT ( 'NONE', 'WORKASPACE' ) );
#188 = CIRCLE ( 'NONE', #15, 0.06749999999999999100 ) ;
#189 = CIRCLE ( 'NONE', #21, 0.06749999999999999100 ) ;
#190 = COLOUR_RGB ( '',0.5686274509803921400, 0.5686274509803921400, 0.5882352941176470800 ) ;
#191 = CIRCLE ( 'NONE', #13, 0.2500000000000000000 ) ;
#192 = CIRCLE ( 'NONE', #16, 0.06749999999999999100 ) ;
#193 = CIRCLE ( 'NONE', #18, 0.2500000000000000000 ) ;
#194 = CIRCLE ( 'NONE', #20, 0.06749999999999999100 ) ;
#195 = COLOUR_RGB ( '',0.5686274509803921400, 0.5686274509803921400, 0.5882352941176470800 ) ;
#196 = PRODUCT_DEFINITION ( 'UNKNOWN', '', #184, #174 ) ;
#197 = PRODUCT_RELATED_PRODUCT_CATEGORY ( 'part', '', ( #173 ) ) ;
#198 = EDGE_CURVE ( 'NONE', #147, #146, #80, .T. ) ;
#199 = EDGE_CURVE ( 'NONE', #149, #146, #189, .T. ) ;
#200 = CIRCLE ( 'NONE', #211, 0.2500000000000000000 ) ;
#201 = EDGE_CURVE ( 'NONE', #148, #149, #42, .T. ) ;
#202 = EDGE_CURVE ( 'NONE', #147, #148, #188, .T. ) ;
#203 = EDGE_CURVE ( 'NONE', #145, #151, #44, .T. ) ;
#204 = EDGE_CURVE ( 'NONE', #145, #144, #191, .T. ) ;
#205 = EDGE_CURVE ( 'NONE', #148, #147, #192, .T. ) ;
#206 = EDGE_CURVE ( 'NONE', #151, #150, #193, .T. ) ;
#207 = EDGE_CURVE ( 'NONE', #146, #149, #194, .T. ) ;
#208 = AXIS2_PLACEMENT_3D ( 'NONE', #109, #108, #107 ) ;
#209 = FACE_OUTER_BOUND ( 'NONE', #167, .T. ) ;
#210 = VECTOR ( 'NONE', #127, 39.37007874015748100 ) ;
#211 = AXIS2_PLACEMENT_3D ( 'NONE', #126, #125, #124 ) ;
#212 = CYLINDRICAL_SURFACE ( 'NONE', #222, 0.2500000000000000000 ) ;
#213 = AXIS2_PLACEMENT_3D ( 'NONE', #123, #122, #121 ) ;
#214 = FACE_OUTER_BOUND ( 'NONE', #164, .T. ) ;
#215 = AXIS2_PLACEMENT_3D ( 'NONE', #120, #119, #118 ) ;
#216 = FACE_OUTER_BOUND ( 'NONE', #163, .T. ) ;
#217 = CYLINDRICAL_SURFACE ( 'NONE', #215, 0.06749999999999999100 ) ;
#218 = STYLED_ITEM ( 'NONE', ( #87 ), #176 ) ;
#219 = CLOSED_SHELL ( 'NONE', ( #9, #8, #7, #6, #5, #4 ) ) ;
#220 = FACE_OUTER_BOUND ( 'NONE', #169, .T. ) ;
#221 = FACE_BOUND ( 'NONE', #168, .T. ) ;
#222 = AXIS2_PLACEMENT_3D ( 'NONE', #117, #116, #115 ) ;
#223 = FACE_BOUND ( 'NONE', #162, .T. ) ;
ENDSEC;
END-ISO-10303-21;
