ISO-10303-21;
HEADER;
FILE_DESCRIPTION (( 'STEP AP214' ),
    '1' );
FILE_NAME ('DH500F-F2.step',
    '2012-04-20T20:57:31',
    ( '' ),
    ( '' ),
    'SwSTEP 2.0',
    'SolidWorks 2012',
    '' );
FILE_SCHEMA (( 'AUTOMOTIVE_DESIGN' ));
ENDSEC;

DATA;
#1 = ADVANCED_BREP_SHAPE_REPRESENTATION ( 'DH500F-F2', ( #254, #157 ), #284 ) ;
#2 = UNCERTAINTY_MEASURE_WITH_UNIT (LENGTH_MEASURE( 1.000000000000000100E-005 ), #35, 'distance_accuracy_value', 'NONE');
#3 = UNCERTAINTY_MEASURE_WITH_UNIT (LENGTH_MEASURE( 1.000000000000000100E-005 ), #169, 'distance_accuracy_value', 'NONE');
#4 = UNCERTAINTY_MEASURE_WITH_UNIT (LENGTH_MEASURE( 1.000000000000000100E-005 ), #20, 'distance_accuracy_value', 'NONE');
#5 = PRODUCT_DEFINITION_FORMATION_WITH_SPECIFIED_SOURCE ( 'ANY', '', #250, .NOT_KNOWN. ) ;
#6 = FILL_AREA_STYLE ('',( #31 ) ) ;
#7 = APPLICATION_PROTOCOL_DEFINITION ( 'draft international standard', 'automotive_design', 1998, #270 ) ;
#8 = DIRECTION ( 'NONE',  ( 0.0000000000000000000, 1.000000000000000000, 0.0000000000000000000 ) ) ;
#9 = PRODUCT_CONTEXT ( 'NONE', #269, 'mechanical' ) ;
#10 = DIRECTION ( 'NONE',  ( 0.0000000000000000000, 1.000000000000000000, 0.0000000000000000000 ) ) ;
#11 = SURFACE_STYLE_FILL_AREA ( #6 ) ;
#12 = DIRECTION ( 'NONE',  ( 1.000000000000000000, 0.0000000000000000000, 0.0000000000000000000 ) ) ;
#13 = CARTESIAN_POINT ( 'NONE',  ( 0.0000000000000000000, 0.5000000000000000000, 0.0000000000000000000 ) ) ;
#14 = DIRECTION ( 'NONE',  ( 0.0000000000000000000, 0.0000000000000000000, -1.000000000000000000 ) ) ;
#15 = SHAPE_DEFINITION_REPRESENTATION ( #253, #1 ) ;
#16 =( NAMED_UNIT ( * ) SI_UNIT ( $, .STERADIAN. ) SOLID_ANGLE_UNIT ( ) );
#17 = CARTESIAN_POINT ( 'NONE',  ( 0.0000000000000000000, 0.0000000000000000000, 0.0000000000000000000 ) ) ;
#18 = DIRECTION ( 'NONE',  ( 0.0000000000000000000, 0.0000000000000000000, 1.000000000000000000 ) ) ;
#19 =( NAMED_UNIT ( * ) PLANE_ANGLE_UNIT ( ) SI_UNIT ( $, .RADIAN. ) );
#20 =( CONVERSION_BASED_UNIT ( 'INCH', #151 ) LENGTH_UNIT ( ) NAMED_UNIT ( #251 ) );
#21 = CARTESIAN_POINT ( 'NONE',  ( 0.0000000000000000000, 0.5000000000000000000, 0.0000000000000000000 ) ) ;
#22 = DIRECTION ( 'NONE',  ( 0.0000000000000000000, 0.0000000000000000000, -1.000000000000000000 ) ) ;
#23 = DIRECTION ( 'NONE',  ( 0.0000000000000000000, -1.000000000000000000, -0.0000000000000000000 ) ) ;
#24 = PRESENTATION_STYLE_ASSIGNMENT (( #25 ) ) ;
#25 = SURFACE_STYLE_USAGE ( .BOTH. , #26 ) ;
#26 = SURFACE_SIDE_STYLE ('',( #11 ) ) ;
#27 = PLANE ( 'NONE',  #154 ) ;
#28 = APPLICATION_PROTOCOL_DEFINITION ( 'draft international standard', 'automotive_design', 1998, #269 ) ;
#29 =( LENGTH_UNIT ( ) NAMED_UNIT ( * ) SI_UNIT ( $, .METRE. ) );
#30 = DIRECTION ( 'NONE',  ( 0.0000000000000000000, 0.0000000000000000000, 1.000000000000000000 ) ) ;
#31 = FILL_AREA_STYLE_COLOUR ( '', #308 ) ;
#32 =( NAMED_UNIT ( * ) SI_UNIT ( $, .STERADIAN. ) SOLID_ANGLE_UNIT ( ) );
#33 = CARTESIAN_POINT ( 'NONE',  ( 0.0000000000000000000, 0.5000000000000000000, 0.0000000000000000000 ) ) ;
#34 =( NAMED_UNIT ( * ) PLANE_ANGLE_UNIT ( ) SI_UNIT ( $, .RADIAN. ) );
#35 =( CONVERSION_BASED_UNIT ( 'INCH', #116 ) LENGTH_UNIT ( ) NAMED_UNIT ( #249 ) );
#36 =( LENGTH_UNIT ( ) NAMED_UNIT ( * ) SI_UNIT ( $, .METRE. ) );
#37 = DIRECTION ( 'NONE',  ( -0.0000000000000000000, -1.000000000000000000, -0.0000000000000000000 ) ) ;
#38 = DIRECTION ( 'NONE',  ( 0.0000000000000000000, 0.0000000000000000000, -1.000000000000000000 ) ) ;
#39 = DIRECTION ( 'NONE',  ( -0.0000000000000000000, -1.000000000000000000, -0.0000000000000000000 ) ) ;
#40 = CARTESIAN_POINT ( 'NONE',  ( 0.0000000000000000000, 0.5000000000000000000, 0.0000000000000000000 ) ) ;
#41 = DIRECTION ( 'NONE',  ( 0.0000000000000000000, 0.0000000000000000000, -1.000000000000000000 ) ) ;
#42 = DIRECTION ( 'NONE',  ( -0.0000000000000000000, -1.000000000000000000, -0.0000000000000000000 ) ) ;
#43 = DIRECTION ( 'NONE',  ( 0.0000000000000000000, 0.8110903317795040700, 0.5849209123409882000 ) ) ;
#44 = CARTESIAN_POINT ( 'NONE',  ( 0.0000000000000000000, 0.5000000000000000000, 0.1874999999999999400 ) ) ;
#45 = LINE ( 'NONE', #44, #150 ) ;
#46 = CARTESIAN_POINT ( 'NONE',  ( 0.0000000000000000000, 0.5000000000000000000, 0.0000000000000000000 ) ) ;
#47 = DIRECTION ( 'NONE',  ( 0.0000000000000000000, 0.0000000000000000000, -1.000000000000000000 ) ) ;
#48 = DIRECTION ( 'NONE',  ( -0.0000000000000000000, -1.000000000000000000, -0.0000000000000000000 ) ) ;
#49 = CARTESIAN_POINT ( 'NONE',  ( 0.0000000000000000000, 0.5000000000000000000, 0.0000000000000000000 ) ) ;
#50 = DIRECTION ( 'NONE',  ( 0.0000000000000000000, 0.0000000000000000000, -1.000000000000000000 ) ) ;
#51 = DIRECTION ( 'NONE',  ( -0.0000000000000000000, -1.000000000000000000, -0.0000000000000000000 ) ) ;
#52 = CARTESIAN_POINT ( 'NONE',  ( 0.0000000000000000000, 0.0000000000000000000, 0.0000000000000000000 ) ) ;
#53 = DIRECTION ( 'NONE',  ( 0.0000000000000000000, 0.0000000000000000000, -1.000000000000000000 ) ) ;
#54 = DIRECTION ( 'NONE',  ( -0.0000000000000000000, -1.000000000000000000, -0.0000000000000000000 ) ) ;
#55 = DIRECTION ( 'NONE',  ( 7.163215230527407300E-017, 0.8110903317795040700, -0.5849209123409882000 ) ) ;
#56 = CARTESIAN_POINT ( 'NONE',  ( 2.296212748401286500E-017, 0.5000000000000000000, -0.1874999999999999400 ) ) ;
#57 = LINE ( 'NONE', #56, #123 ) ;
#58 = DIRECTION ( 'NONE',  ( -0.0000000000000000000, -1.000000000000000000, -0.0000000000000000000 ) ) ;
#59 = CARTESIAN_POINT ( 'NONE',  ( 0.0000000000000000000, 0.0000000000000000000, -0.09375000000000009700 ) ) ;
#60 = LINE ( 'NONE', #59, #124 ) ;
#61 = CARTESIAN_POINT ( 'NONE',  ( 0.0000000000000000000, 0.0000000000000000000, 0.0000000000000000000 ) ) ;
#62 = DIRECTION ( 'NONE',  ( 0.0000000000000000000, 0.0000000000000000000, -1.000000000000000000 ) ) ;
#63 = DIRECTION ( 'NONE',  ( -0.0000000000000000000, -1.000000000000000000, -0.0000000000000000000 ) ) ;
#64 = DIRECTION ( 'NONE',  ( -0.0000000000000000000, -1.000000000000000000, -0.0000000000000000000 ) ) ;
#65 = CARTESIAN_POINT ( 'NONE',  ( 1.148106374200644800E-017, 0.0000000000000000000, 0.09375000000000009700 ) ) ;
#66 = LINE ( 'NONE', #65, #126 ) ;
#67 = CARTESIAN_POINT ( 'NONE',  ( 0.0000000000000000000, 0.3700000000000000000, 0.0000000000000000000 ) ) ;
#68 = DIRECTION ( 'NONE',  ( 0.0000000000000000000, -0.8110903317795040700, -0.5849209123409882000 ) ) ;
#69 = CARTESIAN_POINT ( 'NONE',  ( 0.0000000000000000000, 0.0000000000000000000, -0.1875000000000000800 ) ) ;
#70 = LINE ( 'NONE', #69, #128 ) ;
#71 = DIRECTION ( 'NONE',  ( 0.0000000000000000000, -0.0000000000000000000, 1.000000000000000000 ) ) ;
#72 = DIRECTION ( 'NONE',  ( 0.0000000000000000000, 1.000000000000000000, 0.0000000000000000000 ) ) ;
#73 = CARTESIAN_POINT ( 'NONE',  ( 0.0000000000000000000, 0.0000000000000000000, 0.0000000000000000000 ) ) ;
#74 = PLANE ( 'NONE',  #130 ) ;
#75 = DIRECTION ( 'NONE',  ( 0.0000000000000000000, 0.0000000000000000000, -1.000000000000000000 ) ) ;
#76 = DIRECTION ( 'NONE',  ( -0.0000000000000000000, -1.000000000000000000, -0.0000000000000000000 ) ) ;
#77 = CARTESIAN_POINT ( 'NONE',  ( 0.0000000000000000000, 0.0000000000000000000, 0.0000000000000000000 ) ) ;
#78 = DIRECTION ( 'NONE',  ( 0.0000000000000000000, 0.0000000000000000000, -1.000000000000000000 ) ) ;
#79 = DIRECTION ( 'NONE',  ( -0.0000000000000000000, -1.000000000000000000, -0.0000000000000000000 ) ) ;
#80 = CARTESIAN_POINT ( 'NONE',  ( 0.0000000000000000000, 0.0000000000000000000, 0.0000000000000000000 ) ) ;
#81 = DIRECTION ( 'NONE',  ( 0.0000000000000000000, 0.0000000000000000000, -1.000000000000000000 ) ) ;
#82 = DIRECTION ( 'NONE',  ( -0.0000000000000000000, -1.000000000000000000, -0.0000000000000000000 ) ) ;
#83 = CARTESIAN_POINT ( 'NONE',  ( 0.0000000000000000000, 0.1299999999999999800, 0.0000000000000000000 ) ) ;
#84 = DIRECTION ( 'NONE',  ( 0.0000000000000000000, 0.0000000000000000000, -1.000000000000000000 ) ) ;
#85 = DIRECTION ( 'NONE',  ( -0.0000000000000000000, -1.000000000000000000, -0.0000000000000000000 ) ) ;
#86 = CARTESIAN_POINT ( 'NONE',  ( 0.0000000000000000000, 0.0000000000000000000, 0.0000000000000000000 ) ) ;
#87 = DIRECTION ( 'NONE',  ( 0.0000000000000000000, 0.0000000000000000000, -1.000000000000000000 ) ) ;
#88 = DIRECTION ( 'NONE',  ( -0.0000000000000000000, -1.000000000000000000, -0.0000000000000000000 ) ) ;
#89 = DIRECTION ( 'NONE',  ( -0.0000000000000000000, -1.000000000000000000, -0.0000000000000000000 ) ) ;
#90 = CARTESIAN_POINT ( 'NONE',  ( 4.592425496802575500E-017, 0.0000000000000000000, 0.3750000000000000600 ) ) ;
#91 = LINE ( 'NONE', #90, #137 ) ;
#92 = CARTESIAN_POINT ( 'NONE',  ( 0.0000000000000000000, 0.5000000000000000000, 0.0000000000000000000 ) ) ;
#93 = DIRECTION ( 'NONE',  ( 0.0000000000000000000, 0.0000000000000000000, -1.000000000000000000 ) ) ;
#94 = DIRECTION ( 'NONE',  ( -0.0000000000000000000, -1.000000000000000000, -0.0000000000000000000 ) ) ;
#95 = CARTESIAN_POINT ( 'NONE',  ( 0.0000000000000000000, 0.0000000000000000000, 0.0000000000000000000 ) ) ;
#96 = DIRECTION ( 'NONE',  ( 0.0000000000000000000, 0.0000000000000000000, -1.000000000000000000 ) ) ;
#97 = DIRECTION ( 'NONE',  ( -0.0000000000000000000, -1.000000000000000000, -0.0000000000000000000 ) ) ;
#98 = DIRECTION ( 'NONE',  ( 7.163215230527407300E-017, -0.8110903317795040700, 0.5849209123409882000 ) ) ;
#99 = CARTESIAN_POINT ( 'NONE',  ( 2.296212748401288300E-017, 0.0000000000000000000, 0.1875000000000000800 ) ) ;
#100 = LINE ( 'NONE', #99, #141 ) ;
#101 = DIRECTION ( 'NONE',  ( -0.0000000000000000000, -1.000000000000000000, -0.0000000000000000000 ) ) ;
#102 = CARTESIAN_POINT ( 'NONE',  ( 0.0000000000000000000, 0.0000000000000000000, -0.3750000000000000600 ) ) ;
#103 = LINE ( 'NONE', #102, #143 ) ;
#104 = CARTESIAN_POINT ( 'NONE',  ( 0.0000000000000000000, 0.1299999999999999800, 0.0000000000000000000 ) ) ;
#105 = DIRECTION ( 'NONE',  ( 0.0000000000000000000, 0.0000000000000000000, -1.000000000000000000 ) ) ;
#106 = DIRECTION ( 'NONE',  ( -0.0000000000000000000, -1.000000000000000000, -0.0000000000000000000 ) ) ;
#107 = CARTESIAN_POINT ( 'NONE',  ( 0.0000000000000000000, 0.0000000000000000000, 0.0000000000000000000 ) ) ;
#108 = DIRECTION ( 'NONE',  ( 0.0000000000000000000, 0.0000000000000000000, -1.000000000000000000 ) ) ;
#109 = DIRECTION ( 'NONE',  ( -0.0000000000000000000, -1.000000000000000000, -0.0000000000000000000 ) ) ;
#110 = CARTESIAN_POINT ( 'NONE',  ( 0.0000000000000000000, 0.3700000000000000000, 0.0000000000000000000 ) ) ;
#111 = DIRECTION ( 'NONE',  ( 0.0000000000000000000, 0.0000000000000000000, -1.000000000000000000 ) ) ;
#112 = DIRECTION ( 'NONE',  ( -0.0000000000000000000, -1.000000000000000000, -0.0000000000000000000 ) ) ;
#113 = CARTESIAN_POINT ( 'NONE',  ( 0.0000000000000000000, 0.0000000000000000000, 0.0000000000000000000 ) ) ;
#114 = DIRECTION ( 'NONE',  ( 0.0000000000000000000, 0.0000000000000000000, 1.000000000000000000 ) ) ;
#115 = FACE_OUTER_BOUND ( 'NONE', #236, .T. ) ;
#116 = LENGTH_MEASURE_WITH_UNIT ( LENGTH_MEASURE( 0.02539999999999999900 ), #36 );
#117 = AXIS2_PLACEMENT_3D ( 'NONE', #46, #42, #41 ) ;
#118 = AXIS2_PLACEMENT_3D ( 'NONE', #40, #39, #38 ) ;
#119 = CYLINDRICAL_SURFACE ( 'NONE', #121, 0.3750000000000000600 ) ;
#120 = AXIS2_PLACEMENT_3D ( 'NONE', #13, #8, #30 ) ;
#121 = AXIS2_PLACEMENT_3D ( 'NONE', #52, #51, #50 ) ;
#122 = AXIS2_PLACEMENT_3D ( 'NONE', #61, #54, #53 ) ;
#123 = VECTOR ( 'NONE', #55, 39.37007874015748100 ) ;
#124 = VECTOR ( 'NONE', #58, 39.37007874015748100 ) ;
#125 = AXIS2_PLACEMENT_3D ( 'NONE', #49, #48, #47 ) ;
#126 = VECTOR ( 'NONE', #64, 39.37007874015748100 ) ;
#127 = FACE_OUTER_BOUND ( 'NONE', #234, .T. ) ;
#128 = VECTOR ( 'NONE', #68, 39.37007874015748100 ) ;
#129 = AXIS2_PLACEMENT_3D ( 'NONE', #67, #63, #62 ) ;
#130 = AXIS2_PLACEMENT_3D ( 'NONE', #73, #72, #71 ) ;
#131 = FACE_OUTER_BOUND ( 'NONE', #243, .T. ) ;
#132 = FACE_OUTER_BOUND ( 'NONE', #235, .T. ) ;
#133 = AXIS2_PLACEMENT_3D ( 'NONE', #77, #76, #75 ) ;
#134 = AXIS2_PLACEMENT_3D ( 'NONE', #80, #79, #78 ) ;
#135 = CYLINDRICAL_SURFACE ( 'NONE', #133, 0.3750000000000000600 ) ;
#136 = FACE_BOUND ( 'NONE', #242, .T. ) ;
#137 = VECTOR ( 'NONE', #89, 39.37007874015748100 ) ;
#138 = AXIS2_PLACEMENT_3D ( 'NONE', #92, #88, #87 ) ;
#139 = AXIS2_PLACEMENT_3D ( 'NONE', #95, #94, #93 ) ;
#140 = STYLED_ITEM ( 'NONE', ( #24 ), #1 ) ;
#141 = VECTOR ( 'NONE', #98, 39.37007874015748100 ) ;
#142 = AXIS2_PLACEMENT_3D ( 'NONE', #104, #97, #96 ) ;
#143 = VECTOR ( 'NONE', #101, 39.37007874015748100 ) ;
#144 = FACE_OUTER_BOUND ( 'NONE', #244, .T. ) ;
#145 = AXIS2_PLACEMENT_3D ( 'NONE', #107, #106, #105 ) ;
#146 = AXIS2_PLACEMENT_3D ( 'NONE', #83, #82, #81 ) ;
#147 = CYLINDRICAL_SURFACE ( 'NONE', #148, 0.09375000000000009700 ) ;
#148 = AXIS2_PLACEMENT_3D ( 'NONE', #113, #112, #111 ) ;
#149 = AXIS2_PLACEMENT_3D ( 'NONE', #86, #85, #84 ) ;
#150 = VECTOR ( 'NONE', #43, 39.37007874015748100 ) ;
#151 = LENGTH_MEASURE_WITH_UNIT ( LENGTH_MEASURE( 0.02539999999999999900 ), #29 );
#152 = PRESENTATION_LAYER_ASSIGNMENT (  '', '', ( #140 ) ) ;
#153 = FACE_OUTER_BOUND ( 'NONE', #238, .T. ) ;
#154 = AXIS2_PLACEMENT_3D ( 'NONE', #33, #23, #22 ) ;
#155 = AXIS2_PLACEMENT_3D ( 'NONE', #110, #109, #108 ) ;
#156 = MECHANICAL_DESIGN_GEOMETRIC_PRESENTATION_REPRESENTATION (  '', ( #140 ), #285 ) ;
#157 = AXIS2_PLACEMENT_3D ( 'NONE', #17, #18, #12 ) ;
#158 = FACE_BOUND ( 'NONE', #237, .T. ) ;
#159 = DIRECTION ( 'NONE',  ( -0.0000000000000000000, -1.000000000000000000, -0.0000000000000000000 ) ) ;
#160 = ORIENTED_EDGE ( 'NONE', *, *, #291, .F. ) ;
#161 = DIRECTION ( 'NONE',  ( 0.0000000000000000000, 0.0000000000000000000, -1.000000000000000000 ) ) ;
#162 = CARTESIAN_POINT ( 'NONE',  ( 0.0000000000000000000, 0.0000000000000000000, 0.0000000000000000000 ) ) ;
#163 = ORIENTED_EDGE ( 'NONE', *, *, #289, .T. ) ;
#164 = ORIENTED_EDGE ( 'NONE', *, *, #275, .T. ) ;
#165 = ORIENTED_EDGE ( 'NONE', *, *, #290, .F. ) ;
#166 = CARTESIAN_POINT ( 'NONE',  ( 0.0000000000000000000, 0.0000000000000000000, 0.0000000000000000000 ) ) ;
#167 =( NAMED_UNIT ( * ) SI_UNIT ( $, .STERADIAN. ) SOLID_ANGLE_UNIT ( ) );
#168 =( NAMED_UNIT ( * ) PLANE_ANGLE_UNIT ( ) SI_UNIT ( $, .RADIAN. ) );
#169 =( CONVERSION_BASED_UNIT ( 'INCH', #322 ) LENGTH_UNIT ( ) NAMED_UNIT ( #252 ) );
#170 =( LENGTH_UNIT ( ) NAMED_UNIT ( * ) SI_UNIT ( $, .METRE. ) );
#171 = PRESENTATION_STYLE_ASSIGNMENT (( #172 ) ) ;
#172 = SURFACE_STYLE_USAGE ( .BOTH. , #173 ) ;
#173 = SURFACE_SIDE_STYLE ('',( #174 ) ) ;
#174 = SURFACE_STYLE_FILL_AREA ( #175 ) ;
#175 = FILL_AREA_STYLE ('',( #176 ) ) ;
#176 = FILL_AREA_STYLE_COLOUR ( '', #264 ) ;
#177 = CARTESIAN_POINT ( 'NONE',  ( 4.592425496802575500E-017, 0.0000000000000000000, 0.3750000000000000600 ) ) ;
#178 = CARTESIAN_POINT ( 'NONE',  ( 0.0000000000000000000, 0.5000000000000000000, -0.3750000000000000600 ) ) ;
#179 = CARTESIAN_POINT ( 'NONE',  ( 4.592425496802575500E-017, 0.5000000000000000000, 0.3750000000000000600 ) ) ;
#180 = CARTESIAN_POINT ( 'NONE',  ( 0.0000000000000000000, 0.0000000000000000000, -0.3750000000000000600 ) ) ;
#181 = CARTESIAN_POINT ( 'NONE',  ( 0.0000000000000000000, 0.5000000000000000000, 0.1874999999999999400 ) ) ;
#182 = CARTESIAN_POINT ( 'NONE',  ( 2.296212748401286500E-017, 0.5000000000000000000, -0.1874999999999999400 ) ) ;
#183 = CARTESIAN_POINT ( 'NONE',  ( 1.722159561300965200E-017, 0.3700000000000000000, -0.09375000000000002800 ) ) ;
#184 = CARTESIAN_POINT ( 'NONE',  ( 0.0000000000000000000, 0.3700000000000000000, 0.09375000000000002800 ) ) ;
#185 = CARTESIAN_POINT ( 'NONE',  ( 0.0000000000000000000, 0.0000000000000000000, -0.1875000000000000800 ) ) ;
#186 = CARTESIAN_POINT ( 'NONE',  ( 2.296212748401288300E-017, 0.0000000000000000000, 0.1875000000000000800 ) ) ;
#187 = CARTESIAN_POINT ( 'NONE',  ( 0.0000000000000000000, 0.1299999999999999800, -0.09375000000000016700 ) ) ;
#188 = CARTESIAN_POINT ( 'NONE',  ( 1.148106374200645600E-017, 0.1299999999999999800, 0.09375000000000016700 ) ) ;
#189 = ORIENTED_EDGE ( 'NONE', *, *, #288, .T. ) ;
#190 = ORIENTED_EDGE ( 'NONE', *, *, #280, .F. ) ;
#191 = ORIENTED_EDGE ( 'NONE', *, *, #274, .F. ) ;
#192 = ORIENTED_EDGE ( 'NONE', *, *, #281, .T. ) ;
#193 = ORIENTED_EDGE ( 'NONE', *, *, #291, .T. ) ;
#194 = ORIENTED_EDGE ( 'NONE', *, *, #271, .F. ) ;
#195 = ORIENTED_EDGE ( 'NONE', *, *, #289, .F. ) ;
#196 = ORIENTED_EDGE ( 'NONE', *, *, #298, .F. ) ;
#197 = ORIENTED_EDGE ( 'NONE', *, *, #280, .T. ) ;
#198 = ORIENTED_EDGE ( 'NONE', *, *, #272, .F. ) ;
#199 = ORIENTED_EDGE ( 'NONE', *, *, #273, .T. ) ;
#200 = ORIENTED_EDGE ( 'NONE', *, *, #297, .T. ) ;
#201 = ORIENTED_EDGE ( 'NONE', *, *, #277, .F. ) ;
#202 = ORIENTED_EDGE ( 'NONE', *, *, #279, .F. ) ;
#203 = ORIENTED_EDGE ( 'NONE', *, *, #279, .T. ) ;
#204 = ORIENTED_EDGE ( 'NONE', *, *, #272, .T. ) ;
#205 = ORIENTED_EDGE ( 'NONE', *, *, #276, .F. ) ;
#206 = ORIENTED_EDGE ( 'NONE', *, *, #281, .F. ) ;
#207 = ORIENTED_EDGE ( 'NONE', *, *, #278, .T. ) ;
#208 = ORIENTED_EDGE ( 'NONE', *, *, #296, .F. ) ;
#209 = ORIENTED_EDGE ( 'NONE', *, *, #288, .F. ) ;
#210 = ORIENTED_EDGE ( 'NONE', *, *, #274, .T. ) ;
#211 = ORIENTED_EDGE ( 'NONE', *, *, #276, .T. ) ;
#212 = ORIENTED_EDGE ( 'NONE', *, *, #275, .F. ) ;
#213 = ORIENTED_EDGE ( 'NONE', *, *, #273, .F. ) ;
#214 = ORIENTED_EDGE ( 'NONE', *, *, #277, .T. ) ;
#215 = ORIENTED_EDGE ( 'NONE', *, *, #271, .T. ) ;
#216 = ORIENTED_EDGE ( 'NONE', *, *, #296, .T. ) ;
#217 = ORIENTED_EDGE ( 'NONE', *, *, #295, .T. ) ;
#218 = ORIENTED_EDGE ( 'NONE', *, *, #298, .T. ) ;
#219 = ORIENTED_EDGE ( 'NONE', *, *, #297, .F. ) ;
#220 = ORIENTED_EDGE ( 'NONE', *, *, #292, .F. ) ;
#221 = ORIENTED_EDGE ( 'NONE', *, *, #278, .F. ) ;
#222 = VERTEX_POINT ( 'NONE', #188 ) ;
#223 = VERTEX_POINT ( 'NONE', #187 ) ;
#224 = VERTEX_POINT ( 'NONE', #186 ) ;
#225 = VERTEX_POINT ( 'NONE', #185 ) ;
#226 = VERTEX_POINT ( 'NONE', #184 ) ;
#227 = VERTEX_POINT ( 'NONE', #183 ) ;
#228 = VERTEX_POINT ( 'NONE', #182 ) ;
#229 = VERTEX_POINT ( 'NONE', #181 ) ;
#230 = VERTEX_POINT ( 'NONE', #180 ) ;
#231 = VERTEX_POINT ( 'NONE', #179 ) ;
#232 = VERTEX_POINT ( 'NONE', #178 ) ;
#233 = VERTEX_POINT ( 'NONE', #177 ) ;
#234 = EDGE_LOOP ( 'NONE', ( #212, #210, #211, #209 ) ) ;
#235 = EDGE_LOOP ( 'NONE', ( #207, #214, #198, #213 ) ) ;
#236 = EDGE_LOOP ( 'NONE', ( #247, #246, #248, #208 ) ) ;
#237 = EDGE_LOOP ( 'NONE', ( #217, #218 ) ) ;
#238 = EDGE_LOOP ( 'NONE', ( #165, #163, #164, #160 ) ) ;
#239 = EDGE_LOOP ( 'NONE', ( #220, #215, #216, #196 ) ) ;
#240 = EDGE_LOOP ( 'NONE', ( #195, #194, #193, #197 ) ) ;
#241 = EDGE_LOOP ( 'NONE', ( #191, #190, #189, #192 ) ) ;
#242 = EDGE_LOOP ( 'NONE', ( #206, #205 ) ) ;
#243 = EDGE_LOOP ( 'NONE', ( #204, #203 ) ) ;
#244 = EDGE_LOOP ( 'NONE', ( #201, #200, #199, #202 ) ) ;
#245 = EDGE_LOOP ( 'NONE', ( #221, #219 ) ) ;
#246 = ORIENTED_EDGE ( 'NONE', *, *, #292, .T. ) ;
#247 = ORIENTED_EDGE ( 'NONE', *, *, #290, .T. ) ;
#248 = ORIENTED_EDGE ( 'NONE', *, *, #295, .F. ) ;
#249 = DIMENSIONAL_EXPONENTS ( 1.000000000000000000, 0.0000000000000000000, 0.0000000000000000000, 0.0000000000000000000, 0.0000000000000000000, 0.0000000000000000000, 0.0000000000000000000 ) ;
#250 = PRODUCT ( 'DH500F-F2', 'DH500F-F2', '', ( #9 ) ) ;
#251 = DIMENSIONAL_EXPONENTS ( 1.000000000000000000, 0.0000000000000000000, 0.0000000000000000000, 0.0000000000000000000, 0.0000000000000000000, 0.0000000000000000000, 0.0000000000000000000 ) ;
#252 = DIMENSIONAL_EXPONENTS ( 1.000000000000000000, 0.0000000000000000000, 0.0000000000000000000, 0.0000000000000000000, 0.0000000000000000000, 0.0000000000000000000, 0.0000000000000000000 ) ;
#253 = PRODUCT_DEFINITION_SHAPE ( 'NONE', 'NONE',  #309 ) ;
#254 = MANIFOLD_SOLID_BREP ( 'Revolve1', #317 ) ;
#255 = PRODUCT_DEFINITION_CONTEXT ( 'detailed design', #270, 'design' ) ;
#256 = ADVANCED_FACE ( 'NONE', ( #321 ), #265, .F. ) ;
#257 = ADVANCED_FACE ( 'NONE', ( #314 ), #313, .F. ) ;
#258 = ADVANCED_FACE ( 'NONE', ( #316 ), #263, .F. ) ;
#259 = ADVANCED_FACE ( 'NONE', ( #312, #158 ), #27, .F. ) ;
#260 = ADVANCED_FACE ( 'NONE', ( #115 ), #266, .F. ) ;
#261 = ADVANCED_FACE ( 'NONE', ( #153 ), #147, .F. ) ;
#262 = CIRCLE ( 'NONE', #145, 0.3750000000000000600 ) ;
#263 = CONICAL_SURFACE ( 'NONE', #120, 0.1874999999999999400, 0.6247825465016096900 ) ;
#264 = COLOUR_RGB ( '',0.5686274509803921400, 0.5686274509803921400, 0.5882352941176470800 ) ;
#265 = CONICAL_SURFACE ( 'NONE', #315, 0.1875000000000000800, 0.6247825465016096900 ) ;
#266 = CONICAL_SURFACE ( 'NONE', #323, 0.1874999999999999400, 0.6247825465016096900 ) ;
#267 = CIRCLE ( 'NONE', #155, 0.09375000000000002800 ) ;
#268 = CIRCLE ( 'NONE', #142, 0.09375000000000016700 ) ;
#269 = APPLICATION_CONTEXT ( 'automotive_design' ) ;
#270 = APPLICATION_CONTEXT ( 'automotive_design' ) ;
#271 = EDGE_CURVE ( 'NONE', #227, #226, #267, .T. ) ;
#272 = EDGE_CURVE ( 'NONE', #230, #233, #262, .T. ) ;
#273 = EDGE_CURVE ( 'NONE', #232, #230, #103, .T. ) ;
#274 = EDGE_CURVE ( 'NONE', #222, #224, #100, .T. ) ;
#275 = EDGE_CURVE ( 'NONE', #222, #223, #268, .T. ) ;
#276 = EDGE_CURVE ( 'NONE', #224, #225, #287, .T. ) ;
#277 = EDGE_CURVE ( 'NONE', #231, #233, #91, .T. ) ;
#278 = EDGE_CURVE ( 'NONE', #232, #231, #299, .T. ) ;
#279 = EDGE_CURVE ( 'NONE', #233, #230, #300, .T. ) ;
#280 = EDGE_CURVE ( 'NONE', #223, #222, #301, .T. ) ;
#281 = EDGE_CURVE ( 'NONE', #225, #224, #302, .T. ) ;
#282 = ADVANCED_FACE ( 'NONE', ( #144 ), #135, .T. ) ;
#283 = ADVANCED_FACE ( 'NONE', ( #136, #131 ), #74, .F. ) ;
#284 =( GEOMETRIC_REPRESENTATION_CONTEXT ( 3 ) GLOBAL_UNCERTAINTY_ASSIGNED_CONTEXT ( ( #2 ) ) GLOBAL_UNIT_ASSIGNED_CONTEXT ( ( #35, #34, #32 ) ) REPRESENTATION_CONTEXT ( 'NONE', 'WORKASPACE' ) );
#285 =( GEOMETRIC_REPRESENTATION_CONTEXT ( 3 ) GLOBAL_UNCERTAINTY_ASSIGNED_CONTEXT ( ( #4 ) ) GLOBAL_UNIT_ASSIGNED_CONTEXT ( ( #20, #19, #16 ) ) REPRESENTATION_CONTEXT ( 'NONE', 'WORKASPACE' ) );
#286 =( GEOMETRIC_REPRESENTATION_CONTEXT ( 3 ) GLOBAL_UNCERTAINTY_ASSIGNED_CONTEXT ( ( #3 ) ) GLOBAL_UNIT_ASSIGNED_CONTEXT ( ( #169, #168, #167 ) ) REPRESENTATION_CONTEXT ( 'NONE', 'WORKASPACE' ) );
#287 = CIRCLE ( 'NONE', #139, 0.1875000000000000800 ) ;
#288 = EDGE_CURVE ( 'NONE', #223, #225, #70, .T. ) ;
#289 = EDGE_CURVE ( 'NONE', #226, #222, #66, .T. ) ;
#290 = EDGE_CURVE ( 'NONE', #226, #227, #303, .T. ) ;
#291 = EDGE_CURVE ( 'NONE', #227, #223, #60, .T. ) ;
#292 = EDGE_CURVE ( 'NONE', #227, #228, #57, .T. ) ;
#293 = ADVANCED_FACE ( 'NONE', ( #127 ), #304, .F. ) ;
#294 = ADVANCED_FACE ( 'NONE', ( #132 ), #119, .T. ) ;
#295 = EDGE_CURVE ( 'NONE', #229, #228, #306, .T. ) ;
#296 = EDGE_CURVE ( 'NONE', #226, #229, #45, .T. ) ;
#297 = EDGE_CURVE ( 'NONE', #231, #232, #305, .T. ) ;
#298 = EDGE_CURVE ( 'NONE', #228, #229, #307, .T. ) ;
#299 = CIRCLE ( 'NONE', #138, 0.3750000000000000600 ) ;
#300 = CIRCLE ( 'NONE', #149, 0.3750000000000000600 ) ;
#301 = CIRCLE ( 'NONE', #146, 0.09375000000000016700 ) ;
#302 = CIRCLE ( 'NONE', #134, 0.1875000000000000800 ) ;
#303 = CIRCLE ( 'NONE', #129, 0.09375000000000002800 ) ;
#304 = CONICAL_SURFACE ( 'NONE', #122, 0.1875000000000000800, 0.6247825465016096900 ) ;
#305 = CIRCLE ( 'NONE', #117, 0.3750000000000000600 ) ;
#306 = CIRCLE ( 'NONE', #125, 0.1874999999999999400 ) ;
#307 = CIRCLE ( 'NONE', #118, 0.1874999999999999400 ) ;
#308 = COLOUR_RGB ( '',0.5686274509803921400, 0.5686274509803921400, 0.5882352941176470800 ) ;
#309 = PRODUCT_DEFINITION ( 'UNKNOWN', '', #5, #255 ) ;
#310 = PRODUCT_RELATED_PRODUCT_CATEGORY ( 'part', '', ( #250 ) ) ;
#311 = PRESENTATION_LAYER_ASSIGNMENT (  '', '', ( #320 ) ) ;
#312 = FACE_OUTER_BOUND ( 'NONE', #245, .T. ) ;
#313 = CYLINDRICAL_SURFACE ( 'NONE', #318, 0.09375000000000009700 ) ;
#314 = FACE_OUTER_BOUND ( 'NONE', #240, .T. ) ;
#315 = AXIS2_PLACEMENT_3D ( 'NONE', #166, #159, #161 ) ;
#316 = FACE_OUTER_BOUND ( 'NONE', #239, .T. ) ;
#317 = CLOSED_SHELL ( 'NONE', ( #294, #293, #261, #260, #259, #258, #257, #256, #283, #282 ) ) ;
#318 = AXIS2_PLACEMENT_3D ( 'NONE', #162, #37, #14 ) ;
#319 = MECHANICAL_DESIGN_GEOMETRIC_PRESENTATION_REPRESENTATION (  '', ( #320 ), #286 ) ;
#320 = STYLED_ITEM ( 'NONE', ( #171 ), #254 ) ;
#321 = FACE_OUTER_BOUND ( 'NONE', #241, .T. ) ;
#322 = LENGTH_MEASURE_WITH_UNIT ( LENGTH_MEASURE( 0.02539999999999999900 ), #170 );
#323 = AXIS2_PLACEMENT_3D ( 'NONE', #21, #10, #114 ) ;
ENDSEC;
END-ISO-10303-21;
