ISO-10303-21;
HEADER;
FILE_DESCRIPTION (( 'STEP AP214' ),
    '1' );
FILE_NAME ('DH500H-FS.step',
    '2012-04-20T20:57:37',
    ( '' ),
    ( '' ),
    'SwSTEP 2.0',
    'SolidWorks 2012',
    '' );
FILE_SCHEMA (( 'AUTOMOTIVE_DESIGN' ));
ENDSEC;

DATA;
#1 = UNCERTAINTY_MEASURE_WITH_UNIT (LENGTH_MEASURE( 1.000000000000000100E-005 ), #86, 'distance_accuracy_value', 'NONE');
#2 = SHAPE_DEFINITION_REPRESENTATION ( #257, #274 ) ;
#3 = DIRECTION ( 'NONE',  ( 1.000000000000000000, 0.0000000000000000000, 0.0000000000000000000 ) ) ;
#4 = DIRECTION ( 'NONE',  ( 0.0000000000000000000, 0.0000000000000000000, 1.000000000000000000 ) ) ;
#5 = CARTESIAN_POINT ( 'NONE',  ( 0.0000000000000000000, 0.0000000000000000000, 0.0000000000000000000 ) ) ;
#6 =( NAMED_UNIT ( * ) SI_UNIT ( $, .STERADIAN. ) SOLID_ANGLE_UNIT ( ) );
#7 = APPLICATION_PROTOCOL_DEFINITION ( 'draft international standard', 'automotive_design', 1998, #271 ) ;
#8 =( NAMED_UNIT ( * ) PLANE_ANGLE_UNIT ( ) SI_UNIT ( $, .RADIAN. ) );
#9 = CARTESIAN_POINT ( 'NONE',  ( 0.0000000000000000000, 0.0000000000000000000, -0.09374999999999995800 ) ) ;
#10 = CARTESIAN_POINT ( 'NONE',  ( 1.148106374200643100E-017, 0.0000000000000000000, 0.09374999999999995800 ) ) ;
#11 = CARTESIAN_POINT ( 'NONE',  ( 0.0000000000000000000, 0.3999999999999999700, -0.09374999999999995800 ) ) ;
#12 =( CONVERSION_BASED_UNIT ( 'INCH', #108 ) LENGTH_UNIT ( ) NAMED_UNIT ( #252 ) );
#13 =( LENGTH_UNIT ( ) NAMED_UNIT ( * ) SI_UNIT ( $, .METRE. ) );
#14 = SURFACE_STYLE_USAGE ( .BOTH. , #18 ) ;
#15 = PRESENTATION_STYLE_ASSIGNMENT (( #14 ) ) ;
#16 = FILL_AREA_STYLE ('',( #19 ) ) ;
#17 = SURFACE_STYLE_FILL_AREA ( #16 ) ;
#18 = SURFACE_SIDE_STYLE ('',( #17 ) ) ;
#19 = FILL_AREA_STYLE_COLOUR ( '', #152 ) ;
#20 = APPLICATION_PROTOCOL_DEFINITION ( 'draft international standard', 'automotive_design', 1998, #272 ) ;
#21 = PRODUCT_CONTEXT ( 'NONE', #272, 'mechanical' ) ;
#22 = CARTESIAN_POINT ( 'NONE',  ( 2.296212748401287700E-017, 0.3999999999999999700, 0.1875000000000000300 ) ) ;
#23 = CARTESIAN_POINT ( 'NONE',  ( 2.296212748401287700E-017, 0.5000000000000000000, 0.1875000000000000300 ) ) ;
#24 = CARTESIAN_POINT ( 'NONE',  ( 0.0000000000000000000, 0.5000000000000000000, -0.1875000000000000300 ) ) ;
#25 =( NAMED_UNIT ( * ) SI_UNIT ( $, .STERADIAN. ) SOLID_ANGLE_UNIT ( ) );
#26 =( NAMED_UNIT ( * ) PLANE_ANGLE_UNIT ( ) SI_UNIT ( $, .RADIAN. ) );
#27 =( CONVERSION_BASED_UNIT ( 'INCH', #93 ) LENGTH_UNIT ( ) NAMED_UNIT ( #253 ) );
#28 =( LENGTH_UNIT ( ) NAMED_UNIT ( * ) SI_UNIT ( $, .METRE. ) );
#29 = CARTESIAN_POINT ( 'NONE',  ( 1.148106374200643100E-017, 0.3999999999999999700, 0.09374999999999995800 ) ) ;
#30 = DIRECTION ( 'NONE',  ( 0.0000000000000000000, 0.0000000000000000000, -1.000000000000000000 ) ) ;
#31 = DIRECTION ( 'NONE',  ( -0.0000000000000000000, -1.000000000000000000, -0.0000000000000000000 ) ) ;
#32 = CARTESIAN_POINT ( 'NONE',  ( 0.0000000000000000000, 0.0000000000000000000, 0.0000000000000000000 ) ) ;
#33 = DIRECTION ( 'NONE',  ( 0.0000000000000000000, 0.0000000000000000000, -1.000000000000000000 ) ) ;
#34 = DIRECTION ( 'NONE',  ( -0.0000000000000000000, -1.000000000000000000, -0.0000000000000000000 ) ) ;
#35 = CARTESIAN_POINT ( 'NONE',  ( 0.0000000000000000000, 0.0000000000000000000, 0.0000000000000000000 ) ) ;
#36 = DIRECTION ( 'NONE',  ( 0.0000000000000000000, 0.0000000000000000000, -1.000000000000000000 ) ) ;
#37 = DIRECTION ( 'NONE',  ( 0.0000000000000000000, -1.000000000000000000, -0.0000000000000000000 ) ) ;
#38 = CARTESIAN_POINT ( 'NONE',  ( 0.0000000000000000000, 0.0000000000000000000, 0.0000000000000000000 ) ) ;
#39 = PLANE ( 'NONE',  #102 ) ;
#40 = DIRECTION ( 'NONE',  ( 0.0000000000000000000, 0.0000000000000000000, -1.000000000000000000 ) ) ;
#41 = DIRECTION ( 'NONE',  ( -0.0000000000000000000, -1.000000000000000000, -0.0000000000000000000 ) ) ;
#42 = CARTESIAN_POINT ( 'NONE',  ( 0.0000000000000000000, 0.0000000000000000000, 0.0000000000000000000 ) ) ;
#43 = DIRECTION ( 'NONE',  ( 0.0000000000000000000, 0.0000000000000000000, -1.000000000000000000 ) ) ;
#44 = DIRECTION ( 'NONE',  ( 0.0000000000000000000, -1.000000000000000000, -0.0000000000000000000 ) ) ;
#45 = CARTESIAN_POINT ( 'NONE',  ( 0.0000000000000000000, 0.5000000000000000000, 0.0000000000000000000 ) ) ;
#46 = PLANE ( 'NONE',  #109 ) ;
#47 = DIRECTION ( 'NONE',  ( 0.0000000000000000000, 0.0000000000000000000, -1.000000000000000000 ) ) ;
#48 = DIRECTION ( 'NONE',  ( -0.0000000000000000000, -1.000000000000000000, -0.0000000000000000000 ) ) ;
#49 = CARTESIAN_POINT ( 'NONE',  ( 0.0000000000000000000, 0.0000000000000000000, 0.0000000000000000000 ) ) ;
#50 = DIRECTION ( 'NONE',  ( 0.0000000000000000000, 0.0000000000000000000, -1.000000000000000000 ) ) ;
#51 = DIRECTION ( 'NONE',  ( 0.0000000000000000000, -1.000000000000000000, -0.0000000000000000000 ) ) ;
#52 = CARTESIAN_POINT ( 'NONE',  ( 0.0000000000000000000, 0.3999999999999999700, 0.0000000000000000000 ) ) ;
#53 = PLANE ( 'NONE',  #127 ) ;
#54 = DIRECTION ( 'NONE',  ( 0.0000000000000000000, 0.0000000000000000000, -1.000000000000000000 ) ) ;
#55 = DIRECTION ( 'NONE',  ( -0.0000000000000000000, -1.000000000000000000, -0.0000000000000000000 ) ) ;
#56 = CARTESIAN_POINT ( 'NONE',  ( 0.0000000000000000000, 0.3999999999999999700, 0.0000000000000000000 ) ) ;
#57 = DIRECTION ( 'NONE',  ( 0.0000000000000000000, 0.0000000000000000000, -1.000000000000000000 ) ) ;
#58 = DIRECTION ( 'NONE',  ( -0.0000000000000000000, -1.000000000000000000, -0.0000000000000000000 ) ) ;
#59 = CARTESIAN_POINT ( 'NONE',  ( 0.0000000000000000000, 0.0000000000000000000, 0.0000000000000000000 ) ) ;
#60 = DIRECTION ( 'NONE',  ( 0.0000000000000000000, 0.0000000000000000000, -1.000000000000000000 ) ) ;
#61 = DIRECTION ( 'NONE',  ( -0.0000000000000000000, -1.000000000000000000, -0.0000000000000000000 ) ) ;
#62 = DIRECTION ( 'NONE',  ( -0.0000000000000000000, -1.000000000000000000, -0.0000000000000000000 ) ) ;
#63 = CARTESIAN_POINT ( 'NONE',  ( 6.123233995736766000E-017, 0.0000000000000000000, 0.5000000000000000000 ) ) ;
#64 = LINE ( 'NONE', #63, #122 ) ;
#65 = DIRECTION ( 'NONE',  ( -0.0000000000000000000, -1.000000000000000000, -0.0000000000000000000 ) ) ;
#66 = CARTESIAN_POINT ( 'NONE',  ( 0.0000000000000000000, 0.0000000000000000000, -0.1875000000000000300 ) ) ;
#67 = LINE ( 'NONE', #66, #124 ) ;
#68 = CARTESIAN_POINT ( 'NONE',  ( 0.0000000000000000000, 0.5000000000000000000, 0.0000000000000000000 ) ) ;
#69 = DIRECTION ( 'NONE',  ( 0.0000000000000000000, 0.0000000000000000000, -1.000000000000000000 ) ) ;
#70 = DIRECTION ( 'NONE',  ( -0.0000000000000000000, -1.000000000000000000, -0.0000000000000000000 ) ) ;
#71 = CARTESIAN_POINT ( 'NONE',  ( 0.0000000000000000000, 0.3999999999999999700, 0.0000000000000000000 ) ) ;
#72 = DIRECTION ( 'NONE',  ( 0.0000000000000000000, 0.0000000000000000000, -1.000000000000000000 ) ) ;
#73 = DIRECTION ( 'NONE',  ( -0.0000000000000000000, -1.000000000000000000, -0.0000000000000000000 ) ) ;
#74 = CARTESIAN_POINT ( 'NONE',  ( 0.0000000000000000000, 0.3999999999999999700, 0.0000000000000000000 ) ) ;
#75 = CARTESIAN_POINT ( 'NONE',  ( 0.0000000000000000000, 0.3999999999999999700, -0.1875000000000000300 ) ) ;
#76 = FILL_AREA_STYLE_COLOUR ( '', #150 ) ;
#77 = CARTESIAN_POINT ( 'NONE',  ( 0.0000000000000000000, 0.5000000000000000000, -0.5000000000000000000 ) ) ;
#78 = DIRECTION ( 'NONE',  ( 0.0000000000000000000, 0.0000000000000000000, -1.000000000000000000 ) ) ;
#79 = DIRECTION ( 'NONE',  ( -0.0000000000000000000, -1.000000000000000000, -0.0000000000000000000 ) ) ;
#80 = CARTESIAN_POINT ( 'NONE',  ( 0.0000000000000000000, 0.5000000000000000000, 0.0000000000000000000 ) ) ;
#81 = CARTESIAN_POINT ( 'NONE',  ( 0.0000000000000000000, 0.0000000000000000000, 0.0000000000000000000 ) ) ;
#82 = DIRECTION ( 'NONE',  ( -0.0000000000000000000, -1.000000000000000000, -0.0000000000000000000 ) ) ;
#83 = DIRECTION ( 'NONE',  ( 0.0000000000000000000, 0.0000000000000000000, -1.000000000000000000 ) ) ;
#84 =( NAMED_UNIT ( * ) SI_UNIT ( $, .STERADIAN. ) SOLID_ANGLE_UNIT ( ) );
#85 =( NAMED_UNIT ( * ) PLANE_ANGLE_UNIT ( ) SI_UNIT ( $, .RADIAN. ) );
#86 =( CONVERSION_BASED_UNIT ( 'INCH', #136 ) LENGTH_UNIT ( ) NAMED_UNIT ( #251 ) );
#87 =( LENGTH_UNIT ( ) NAMED_UNIT ( * ) SI_UNIT ( $, .METRE. ) );
#88 = PRESENTATION_STYLE_ASSIGNMENT (( #89 ) ) ;
#89 = SURFACE_STYLE_USAGE ( .BOTH. , #90 ) ;
#90 = SURFACE_SIDE_STYLE ('',( #91 ) ) ;
#91 = SURFACE_STYLE_FILL_AREA ( #92 ) ;
#92 = FILL_AREA_STYLE ('',( #76 ) ) ;
#93 = LENGTH_MEASURE_WITH_UNIT ( LENGTH_MEASURE( 0.02539999999999999900 ), #28 );
#94 = CYLINDRICAL_SURFACE ( 'NONE', #95, 0.09374999999999995800 ) ;
#95 = AXIS2_PLACEMENT_3D ( 'NONE', #32, #31, #30 ) ;
#96 = MECHANICAL_DESIGN_GEOMETRIC_PRESENTATION_REPRESENTATION (  '', ( #107 ), #289 ) ;
#97 = MECHANICAL_DESIGN_GEOMETRIC_PRESENTATION_REPRESENTATION (  '', ( #99 ), #291 ) ;
#98 = PRESENTATION_LAYER_ASSIGNMENT (  '', '', ( #99 ) ) ;
#99 = STYLED_ITEM ( 'NONE', ( #15 ), #274 ) ;
#100 = AXIS2_PLACEMENT_3D ( 'NONE', #163, #162, #161 ) ;
#101 = CYLINDRICAL_SURFACE ( 'NONE', #105, 0.09374999999999995800 ) ;
#102 = AXIS2_PLACEMENT_3D ( 'NONE', #38, #37, #36 ) ;
#103 = FACE_OUTER_BOUND ( 'NONE', #235, .T. ) ;
#104 = FACE_BOUND ( 'NONE', #237, .T. ) ;
#105 = AXIS2_PLACEMENT_3D ( 'NONE', #35, #34, #33 ) ;
#106 = CYLINDRICAL_SURFACE ( 'NONE', #113, 0.5000000000000000000 ) ;
#107 = STYLED_ITEM ( 'NONE', ( #88 ), #255 ) ;
#108 = LENGTH_MEASURE_WITH_UNIT ( LENGTH_MEASURE( 0.02539999999999999900 ), #13 );
#109 = AXIS2_PLACEMENT_3D ( 'NONE', #45, #44, #43 ) ;
#110 = FACE_OUTER_BOUND ( 'NONE', #231, .T. ) ;
#111 = FACE_OUTER_BOUND ( 'NONE', #238, .T. ) ;
#112 = FACE_BOUND ( 'NONE', #240, .T. ) ;
#113 = AXIS2_PLACEMENT_3D ( 'NONE', #42, #41, #40 ) ;
#114 = CYLINDRICAL_SURFACE ( 'NONE', #118, 0.1875000000000000300 ) ;
#115 = FACE_OUTER_BOUND ( 'NONE', #239, .T. ) ;
#116 = FACE_OUTER_BOUND ( 'NONE', #236, .T. ) ;
#117 = FACE_OUTER_BOUND ( 'NONE', #241, .T. ) ;
#118 = AXIS2_PLACEMENT_3D ( 'NONE', #49, #48, #47 ) ;
#119 = FACE_BOUND ( 'NONE', #232, .T. ) ;
#120 = AXIS2_PLACEMENT_3D ( 'NONE', #5, #4, #3 ) ;
#121 = FACE_OUTER_BOUND ( 'NONE', #242, .T. ) ;
#122 = VECTOR ( 'NONE', #62, 39.37007874015748100 ) ;
#123 = AXIS2_PLACEMENT_3D ( 'NONE', #68, #61, #60 ) ;
#124 = VECTOR ( 'NONE', #65, 39.37007874015748100 ) ;
#125 = AXIS2_PLACEMENT_3D ( 'NONE', #160, #159, #158 ) ;
#126 = AXIS2_PLACEMENT_3D ( 'NONE', #71, #70, #69 ) ;
#127 = AXIS2_PLACEMENT_3D ( 'NONE', #52, #51, #50 ) ;
#128 = AXIS2_PLACEMENT_3D ( 'NONE', #56, #55, #54 ) ;
#129 = AXIS2_PLACEMENT_3D ( 'NONE', #59, #58, #57 ) ;
#130 = CYLINDRICAL_SURFACE ( 'NONE', #131, 0.5000000000000000000 ) ;
#131 = AXIS2_PLACEMENT_3D ( 'NONE', #81, #82, #83 ) ;
#132 = AXIS2_PLACEMENT_3D ( 'NONE', #74, #73, #72 ) ;
#133 = FACE_OUTER_BOUND ( 'NONE', #234, .T. ) ;
#134 = AXIS2_PLACEMENT_3D ( 'NONE', #80, #79, #78 ) ;
#135 = PRODUCT_DEFINITION_FORMATION_WITH_SPECIFIED_SOURCE ( 'ANY', '', #254, .NOT_KNOWN. ) ;
#136 = LENGTH_MEASURE_WITH_UNIT ( LENGTH_MEASURE( 0.02539999999999999900 ), #87 );
#137 = PRESENTATION_LAYER_ASSIGNMENT (  '', '', ( #107 ) ) ;
#138 = CIRCLE ( 'NONE', #296, 0.09374999999999995800 ) ;
#139 = EDGE_CURVE ( 'NONE', #229, #220, #190, .T. ) ;
#140 = EDGE_CURVE ( 'NONE', #221, #223, #186, .T. ) ;
#141 = EDGE_CURVE ( 'NONE', #221, #222, #138, .T. ) ;
#142 = EDGE_CURVE ( 'NONE', #223, #224, #261, .T. ) ;
#143 = EDGE_CURVE ( 'NONE', #222, #224, #177, .T. ) ;
#144 = EDGE_CURVE ( 'NONE', #226, #227, #174, .T. ) ;
#145 = EDGE_CURVE ( 'NONE', #226, #225, #262, .T. ) ;
#146 = ADVANCED_FACE ( 'NONE', ( #303 ), #292, .F. ) ;
#147 = EDGE_CURVE ( 'NONE', #224, #223, #264, .T. ) ;
#148 = EDGE_CURVE ( 'NONE', #219, #220, #263, .T. ) ;
#149 = EDGE_CURVE ( 'NONE', #218, #229, #265, .T. ) ;
#150 = COLOUR_RGB ( '',0.5686274509803921400, 0.5686274509803921400, 0.5882352941176470800 ) ;
#151 = CIRCLE ( 'NONE', #128, 0.09374999999999995800 ) ;
#152 = COLOUR_RGB ( '',0.5686274509803921400, 0.5686274509803921400, 0.5882352941176470800 ) ;
#153 = PRODUCT_DEFINITION ( 'UNKNOWN', '', #135, #256 ) ;
#154 = PRODUCT_RELATED_PRODUCT_CATEGORY ( 'part', '', ( #254 ) ) ;
#155 = CARTESIAN_POINT ( 'NONE',  ( 0.0000000000000000000, 0.0000000000000000000, -0.5000000000000000000 ) ) ;
#156 = CARTESIAN_POINT ( 'NONE',  ( 6.123233995736766000E-017, 0.0000000000000000000, 0.5000000000000000000 ) ) ;
#157 = CARTESIAN_POINT ( 'NONE',  ( 6.123233995736766000E-017, 0.5000000000000000000, 0.5000000000000000000 ) ) ;
#158 = DIRECTION ( 'NONE',  ( 0.0000000000000000000, 0.0000000000000000000, -1.000000000000000000 ) ) ;
#159 = DIRECTION ( 'NONE',  ( -0.0000000000000000000, -1.000000000000000000, -0.0000000000000000000 ) ) ;
#160 = CARTESIAN_POINT ( 'NONE',  ( 0.0000000000000000000, 0.5000000000000000000, 0.0000000000000000000 ) ) ;
#161 = DIRECTION ( 'NONE',  ( 0.0000000000000000000, 0.0000000000000000000, -1.000000000000000000 ) ) ;
#162 = DIRECTION ( 'NONE',  ( -0.0000000000000000000, -1.000000000000000000, -0.0000000000000000000 ) ) ;
#163 = CARTESIAN_POINT ( 'NONE',  ( 0.0000000000000000000, 0.0000000000000000000, 0.0000000000000000000 ) ) ;
#164 = DIRECTION ( 'NONE',  ( 0.0000000000000000000, 0.0000000000000000000, -1.000000000000000000 ) ) ;
#165 = DIRECTION ( 'NONE',  ( -0.0000000000000000000, -1.000000000000000000, -0.0000000000000000000 ) ) ;
#166 = CARTESIAN_POINT ( 'NONE',  ( 0.0000000000000000000, 0.0000000000000000000, 0.0000000000000000000 ) ) ;
#167 = DIRECTION ( 'NONE',  ( 0.0000000000000000000, 0.0000000000000000000, -1.000000000000000000 ) ) ;
#168 = DIRECTION ( 'NONE',  ( -0.0000000000000000000, -1.000000000000000000, -0.0000000000000000000 ) ) ;
#169 = CARTESIAN_POINT ( 'NONE',  ( 0.0000000000000000000, 0.0000000000000000000, 0.0000000000000000000 ) ) ;
#170 = DIRECTION ( 'NONE',  ( 0.0000000000000000000, 0.0000000000000000000, -1.000000000000000000 ) ) ;
#171 = DIRECTION ( 'NONE',  ( -0.0000000000000000000, -1.000000000000000000, -0.0000000000000000000 ) ) ;
#172 = DIRECTION ( 'NONE',  ( -0.0000000000000000000, -1.000000000000000000, -0.0000000000000000000 ) ) ;
#173 = CARTESIAN_POINT ( 'NONE',  ( 2.296212748401287700E-017, 0.0000000000000000000, 0.1875000000000000300 ) ) ;
#174 = LINE ( 'NONE', #173, #302 ) ;
#175 = DIRECTION ( 'NONE',  ( -0.0000000000000000000, -1.000000000000000000, -0.0000000000000000000 ) ) ;
#176 = CARTESIAN_POINT ( 'NONE',  ( 0.0000000000000000000, 0.0000000000000000000, -0.09374999999999995800 ) ) ;
#177 = LINE ( 'NONE', #176, #299 ) ;
#178 = CARTESIAN_POINT ( 'NONE',  ( 0.0000000000000000000, 0.5000000000000000000, 0.0000000000000000000 ) ) ;
#179 = DIRECTION ( 'NONE',  ( 0.0000000000000000000, 0.0000000000000000000, -1.000000000000000000 ) ) ;
#180 = DIRECTION ( 'NONE',  ( -0.0000000000000000000, -1.000000000000000000, -0.0000000000000000000 ) ) ;
#181 = CARTESIAN_POINT ( 'NONE',  ( 0.0000000000000000000, 0.0000000000000000000, 0.0000000000000000000 ) ) ;
#182 = DIRECTION ( 'NONE',  ( 0.0000000000000000000, 0.0000000000000000000, -1.000000000000000000 ) ) ;
#183 = DIRECTION ( 'NONE',  ( -0.0000000000000000000, -1.000000000000000000, -0.0000000000000000000 ) ) ;
#184 = DIRECTION ( 'NONE',  ( -0.0000000000000000000, -1.000000000000000000, -0.0000000000000000000 ) ) ;
#185 = CARTESIAN_POINT ( 'NONE',  ( 1.148106374200643100E-017, 0.0000000000000000000, 0.09374999999999995800 ) ) ;
#186 = LINE ( 'NONE', #185, #297 ) ;
#187 = CARTESIAN_POINT ( 'NONE',  ( 0.0000000000000000000, 0.3999999999999999700, 0.0000000000000000000 ) ) ;
#188 = DIRECTION ( 'NONE',  ( -0.0000000000000000000, -1.000000000000000000, -0.0000000000000000000 ) ) ;
#189 = CARTESIAN_POINT ( 'NONE',  ( 0.0000000000000000000, 0.0000000000000000000, -0.5000000000000000000 ) ) ;
#190 = LINE ( 'NONE', #189, #295 ) ;
#191 = ORIENTED_EDGE ( 'NONE', *, *, #277, .T. ) ;
#192 = ORIENTED_EDGE ( 'NONE', *, *, #259, .F. ) ;
#193 = ORIENTED_EDGE ( 'NONE', *, *, #144, .F. ) ;
#194 = ORIENTED_EDGE ( 'NONE', *, *, #145, .T. ) ;
#195 = ORIENTED_EDGE ( 'NONE', *, *, #260, .T. ) ;
#196 = ORIENTED_EDGE ( 'NONE', *, *, #259, .T. ) ;
#197 = ORIENTED_EDGE ( 'NONE', *, *, #149, .F. ) ;
#198 = ORIENTED_EDGE ( 'NONE', *, *, #279, .F. ) ;
#199 = ORIENTED_EDGE ( 'NONE', *, *, #148, .F. ) ;
#200 = ORIENTED_EDGE ( 'NONE', *, *, #141, .T. ) ;
#201 = ORIENTED_EDGE ( 'NONE', *, *, #281, .T. ) ;
#202 = ORIENTED_EDGE ( 'NONE', *, *, #276, .F. ) ;
#203 = ORIENTED_EDGE ( 'NONE', *, *, #139, .F. ) ;
#204 = ORIENTED_EDGE ( 'NONE', *, *, #278, .T. ) ;
#205 = ORIENTED_EDGE ( 'NONE', *, *, #280, .F. ) ;
#206 = ORIENTED_EDGE ( 'NONE', *, *, #279, .T. ) ;
#207 = ORIENTED_EDGE ( 'NONE', *, *, #277, .F. ) ;
#208 = ORIENTED_EDGE ( 'NONE', *, *, #144, .T. ) ;
#209 = ORIENTED_EDGE ( 'NONE', *, *, #260, .F. ) ;
#210 = ORIENTED_EDGE ( 'NONE', *, *, #149, .T. ) ;
#211 = ORIENTED_EDGE ( 'NONE', *, *, #278, .F. ) ;
#212 = ORIENTED_EDGE ( 'NONE', *, *, #147, .F. ) ;
#213 = ORIENTED_EDGE ( 'NONE', *, *, #142, .F. ) ;
#214 = ORIENTED_EDGE ( 'NONE', *, *, #148, .T. ) ;
#215 = ORIENTED_EDGE ( 'NONE', *, *, #280, .T. ) ;
#216 = ORIENTED_EDGE ( 'NONE', *, *, #139, .T. ) ;
#217 = ORIENTED_EDGE ( 'NONE', *, *, #147, .T. ) ;
#218 = VERTEX_POINT ( 'NONE', #157 ) ;
#219 = VERTEX_POINT ( 'NONE', #156 ) ;
#220 = VERTEX_POINT ( 'NONE', #155 ) ;
#221 = VERTEX_POINT ( 'NONE', #29 ) ;
#222 = VERTEX_POINT ( 'NONE', #11 ) ;
#223 = VERTEX_POINT ( 'NONE', #10 ) ;
#224 = VERTEX_POINT ( 'NONE', #9 ) ;
#225 = VERTEX_POINT ( 'NONE', #24 ) ;
#226 = VERTEX_POINT ( 'NONE', #23 ) ;
#227 = VERTEX_POINT ( 'NONE', #22 ) ;
#228 = VERTEX_POINT ( 'NONE', #75 ) ;
#229 = VERTEX_POINT ( 'NONE', #77 ) ;
#230 = ORIENTED_EDGE ( 'NONE', *, *, #276, .T. ) ;
#231 = EDGE_LOOP ( 'NONE', ( #250, #248, #249, #247 ) ) ;
#232 = EDGE_LOOP ( 'NONE', ( #201, #200 ) ) ;
#233 = EDGE_LOOP ( 'NONE', ( #243, #208, #230, #207 ) ) ;
#234 = EDGE_LOOP ( 'NONE', ( #206, #204, #205, #203 ) ) ;
#235 = EDGE_LOOP ( 'NONE', ( #246, #244, #245, #217 ) ) ;
#236 = EDGE_LOOP ( 'NONE', ( #215, #214 ) ) ;
#237 = EDGE_LOOP ( 'NONE', ( #212, #213 ) ) ;
#238 = EDGE_LOOP ( 'NONE', ( #211, #210, #216, #199 ) ) ;
#239 = EDGE_LOOP ( 'NONE', ( #198, #197 ) ) ;
#240 = EDGE_LOOP ( 'NONE', ( #196, #194 ) ) ;
#241 = EDGE_LOOP ( 'NONE', ( #193, #192, #191, #195 ) ) ;
#242 = EDGE_LOOP ( 'NONE', ( #209, #202 ) ) ;
#243 = ORIENTED_EDGE ( 'NONE', *, *, #145, .F. ) ;
#244 = ORIENTED_EDGE ( 'NONE', *, *, #281, .F. ) ;
#245 = ORIENTED_EDGE ( 'NONE', *, *, #143, .T. ) ;
#246 = ORIENTED_EDGE ( 'NONE', *, *, #140, .F. ) ;
#247 = ORIENTED_EDGE ( 'NONE', *, *, #143, .F. ) ;
#248 = ORIENTED_EDGE ( 'NONE', *, *, #140, .T. ) ;
#249 = ORIENTED_EDGE ( 'NONE', *, *, #142, .T. ) ;
#250 = ORIENTED_EDGE ( 'NONE', *, *, #141, .F. ) ;
#251 = DIMENSIONAL_EXPONENTS ( 1.000000000000000000, 0.0000000000000000000, 0.0000000000000000000, 0.0000000000000000000, 0.0000000000000000000, 0.0000000000000000000, 0.0000000000000000000 ) ;
#252 = DIMENSIONAL_EXPONENTS ( 1.000000000000000000, 0.0000000000000000000, 0.0000000000000000000, 0.0000000000000000000, 0.0000000000000000000, 0.0000000000000000000, 0.0000000000000000000 ) ;
#253 = DIMENSIONAL_EXPONENTS ( 1.000000000000000000, 0.0000000000000000000, 0.0000000000000000000, 0.0000000000000000000, 0.0000000000000000000, 0.0000000000000000000, 0.0000000000000000000 ) ;
#254 = PRODUCT ( 'DH500H-FS', 'DH500H-FS', '', ( #21 ) ) ;
#255 = MANIFOLD_SOLID_BREP ( 'Revolve3', #293 ) ;
#256 = PRODUCT_DEFINITION_CONTEXT ( 'detailed design', #271, 'design' ) ;
#257 = PRODUCT_DEFINITION_SHAPE ( 'NONE', 'NONE',  #153 ) ;
#258 = ADVANCED_FACE ( 'NONE', ( #133 ), #130, .T. ) ;
#259 = EDGE_CURVE ( 'NONE', #225, #226, #270, .T. ) ;
#260 = EDGE_CURVE ( 'NONE', #228, #227, #269, .T. ) ;
#261 = CIRCLE ( 'NONE', #298, 0.09374999999999995800 ) ;
#262 = CIRCLE ( 'NONE', #301, 0.1875000000000000300 ) ;
#263 = CIRCLE ( 'NONE', #100, 0.5000000000000000000 ) ;
#264 = CIRCLE ( 'NONE', #300, 0.09374999999999995800 ) ;
#265 = CIRCLE ( 'NONE', #125, 0.5000000000000000000 ) ;
#266 = CIRCLE ( 'NONE', #126, 0.1875000000000000300 ) ;
#267 = CIRCLE ( 'NONE', #123, 0.5000000000000000000 ) ;
#268 = CIRCLE ( 'NONE', #129, 0.5000000000000000000 ) ;
#269 = CIRCLE ( 'NONE', #132, 0.1875000000000000300 ) ;
#270 = CIRCLE ( 'NONE', #134, 0.1875000000000000300 ) ;
#271 = APPLICATION_CONTEXT ( 'automotive_design' ) ;
#272 = APPLICATION_CONTEXT ( 'automotive_design' ) ;
#273 = UNCERTAINTY_MEASURE_WITH_UNIT (LENGTH_MEASURE( 1.000000000000000100E-005 ), #12, 'distance_accuracy_value', 'NONE');
#274 = ADVANCED_BREP_SHAPE_REPRESENTATION ( 'DH500H-FS', ( #255, #120 ), #290 ) ;
#275 = UNCERTAINTY_MEASURE_WITH_UNIT (LENGTH_MEASURE( 1.000000000000000100E-005 ), #27, 'distance_accuracy_value', 'NONE');
#276 = EDGE_CURVE ( 'NONE', #227, #228, #266, .T. ) ;
#277 = EDGE_CURVE ( 'NONE', #225, #228, #67, .T. ) ;
#278 = EDGE_CURVE ( 'NONE', #218, #219, #64, .T. ) ;
#279 = EDGE_CURVE ( 'NONE', #229, #218, #267, .T. ) ;
#280 = EDGE_CURVE ( 'NONE', #220, #219, #268, .T. ) ;
#281 = EDGE_CURVE ( 'NONE', #222, #221, #151, .T. ) ;
#282 = ADVANCED_FACE ( 'NONE', ( #121, #119 ), #53, .F. ) ;
#283 = ADVANCED_FACE ( 'NONE', ( #117 ), #114, .F. ) ;
#284 = ADVANCED_FACE ( 'NONE', ( #115, #112 ), #46, .F. ) ;
#285 = ADVANCED_FACE ( 'NONE', ( #111 ), #106, .T. ) ;
#286 = ADVANCED_FACE ( 'NONE', ( #116, #104 ), #39, .T. ) ;
#287 = ADVANCED_FACE ( 'NONE', ( #103 ), #101, .F. ) ;
#288 = ADVANCED_FACE ( 'NONE', ( #110 ), #94, .F. ) ;
#289 =( GEOMETRIC_REPRESENTATION_CONTEXT ( 3 ) GLOBAL_UNCERTAINTY_ASSIGNED_CONTEXT ( ( #1 ) ) GLOBAL_UNIT_ASSIGNED_CONTEXT ( ( #86, #85, #84 ) ) REPRESENTATION_CONTEXT ( 'NONE', 'WORKASPACE' ) );
#290 =( GEOMETRIC_REPRESENTATION_CONTEXT ( 3 ) GLOBAL_UNCERTAINTY_ASSIGNED_CONTEXT ( ( #275 ) ) GLOBAL_UNIT_ASSIGNED_CONTEXT ( ( #27, #26, #25 ) ) REPRESENTATION_CONTEXT ( 'NONE', 'WORKASPACE' ) );
#291 =( GEOMETRIC_REPRESENTATION_CONTEXT ( 3 ) GLOBAL_UNCERTAINTY_ASSIGNED_CONTEXT ( ( #273 ) ) GLOBAL_UNIT_ASSIGNED_CONTEXT ( ( #12, #8, #6 ) ) REPRESENTATION_CONTEXT ( 'NONE', 'WORKASPACE' ) );
#292 = CYLINDRICAL_SURFACE ( 'NONE', #294, 0.1875000000000000300 ) ;
#293 = CLOSED_SHELL ( 'NONE', ( #146, #258, #288, #287, #286, #285, #284, #283, #282 ) ) ;
#294 = AXIS2_PLACEMENT_3D ( 'NONE', #169, #168, #167 ) ;
#295 = VECTOR ( 'NONE', #188, 39.37007874015748100 ) ;
#296 = AXIS2_PLACEMENT_3D ( 'NONE', #187, #183, #182 ) ;
#297 = VECTOR ( 'NONE', #184, 39.37007874015748100 ) ;
#298 = AXIS2_PLACEMENT_3D ( 'NONE', #181, #180, #179 ) ;
#299 = VECTOR ( 'NONE', #175, 39.37007874015748100 ) ;
#300 = AXIS2_PLACEMENT_3D ( 'NONE', #166, #165, #164 ) ;
#301 = AXIS2_PLACEMENT_3D ( 'NONE', #178, #171, #170 ) ;
#302 = VECTOR ( 'NONE', #172, 39.37007874015748100 ) ;
#303 = FACE_OUTER_BOUND ( 'NONE', #233, .T. ) ;
ENDSEC;
END-ISO-10303-21;
