ISO-10303-21;
HEADER;
FILE_DESCRIPTION (( 'STEP AP214' ),
    '1' );
FILE_NAME ('H125CA2.step',
    '2012-04-20T20:58:34',
    ( '' ),
    ( '' ),
    'SwSTEP 2.0',
    'SolidWorks 2012',
    '' );
FILE_SCHEMA (( 'AUTOMOTIVE_DESIGN' ));
ENDSEC;

DATA;
#1 = AXIS2_PLACEMENT_3D ( 'NONE', #79, #80, #81 ) ;
#2 = AXIS2_PLACEMENT_3D ( 'NONE', #94, #95, #96 ) ;
#3 = AXIS2_PLACEMENT_3D ( 'NONE', #85, #86, #87 ) ;
#4 = VECTOR ( 'NONE', #76, 39.37007874015748100 ) ;
#5 = UNCERTAINTY_MEASURE_WITH_UNIT (LENGTH_MEASURE( 1.000000000000000100E-005 ), #61, 'distance_accuracy_value', 'NONE');
#6 = EDGE_LOOP ( 'NONE', ( #32, #35 ) ) ;
#7 = EDGE_LOOP ( 'NONE', ( #20, #24, #17, #15 ) ) ;
#8 = EDGE_LOOP ( 'NONE', ( #16, #23, #18, #19 ) ) ;
#9 = EDGE_LOOP ( 'NONE', ( #34, #36 ) ) ;
#10 = EDGE_LOOP ( 'NONE', ( #33, #14 ) ) ;
#11 = EDGE_LOOP ( 'NONE', ( #37, #27 ) ) ;
#12 = EDGE_LOOP ( 'NONE', ( #31, #30, #29, #28 ) ) ;
#13 = EDGE_LOOP ( 'NONE', ( #25, #22, #21, #26 ) ) ;
#14 = ORIENTED_EDGE ( 'NONE', *, *, #199, .F. ) ;
#15 = ORIENTED_EDGE ( 'NONE', *, *, #195, .F. ) ;
#16 = ORIENTED_EDGE ( 'NONE', *, *, #193, .F. ) ;
#17 = ORIENTED_EDGE ( 'NONE', *, *, #197, .F. ) ;
#18 = ORIENTED_EDGE ( 'NONE', *, *, #199, .T. ) ;
#19 = ORIENTED_EDGE ( 'NONE', *, *, #200, .F. ) ;
#20 = ORIENTED_EDGE ( 'NONE', *, *, #198, .T. ) ;
#21 = ORIENTED_EDGE ( 'NONE', *, *, #195, .T. ) ;
#22 = ORIENTED_EDGE ( 'NONE', *, *, #202, .T. ) ;
#23 = ORIENTED_EDGE ( 'NONE', *, *, #192, .T. ) ;
#24 = ORIENTED_EDGE ( 'NONE', *, *, #194, .T. ) ;
#25 = ORIENTED_EDGE ( 'NONE', *, *, #194, .F. ) ;
#26 = ORIENTED_EDGE ( 'NONE', *, *, #196, .F. ) ;
#27 = ORIENTED_EDGE ( 'NONE', *, *, #196, .T. ) ;
#28 = ORIENTED_EDGE ( 'NONE', *, *, #203, .T. ) ;
#29 = ORIENTED_EDGE ( 'NONE', *, *, #200, .T. ) ;
#30 = ORIENTED_EDGE ( 'NONE', *, *, #201, .F. ) ;
#31 = ORIENTED_EDGE ( 'NONE', *, *, #192, .F. ) ;
#32 = ORIENTED_EDGE ( 'NONE', *, *, #201, .T. ) ;
#33 = ORIENTED_EDGE ( 'NONE', *, *, #203, .F. ) ;
#34 = ORIENTED_EDGE ( 'NONE', *, *, #198, .F. ) ;
#35 = ORIENTED_EDGE ( 'NONE', *, *, #193, .T. ) ;
#36 = ORIENTED_EDGE ( 'NONE', *, *, #202, .F. ) ;
#37 = ORIENTED_EDGE ( 'NONE', *, *, #197, .T. ) ;
#38 = VERTEX_POINT ( 'NONE', #46 ) ;
#39 = VERTEX_POINT ( 'NONE', #47 ) ;
#40 = VERTEX_POINT ( 'NONE', #48 ) ;
#41 = VERTEX_POINT ( 'NONE', #49 ) ;
#42 = VERTEX_POINT ( 'NONE', #50 ) ;
#43 = VERTEX_POINT ( 'NONE', #51 ) ;
#44 = VERTEX_POINT ( 'NONE', #52 ) ;
#45 = VERTEX_POINT ( 'NONE', #53 ) ;
#46 = CARTESIAN_POINT ( 'NONE',  ( -0.09375000000000001400, 0.0000000000000000000, 0.1250000000000000000 ) ) ;
#47 = CARTESIAN_POINT ( 'NONE',  ( 0.09375000000000001400, 1.148106374200643900E-017, 0.1250000000000000000 ) ) ;
#48 = CARTESIAN_POINT ( 'NONE',  ( -0.09375000000000001400, 0.0000000000000000000, 0.0000000000000000000 ) ) ;
#49 = CARTESIAN_POINT ( 'NONE',  ( 0.09375000000000001400, 1.148106374200643900E-017, 0.0000000000000000000 ) ) ;
#50 = CARTESIAN_POINT ( 'NONE',  ( 0.1875000000000000300, 2.296212748401287700E-017, 0.1250000000000000000 ) ) ;
#51 = CARTESIAN_POINT ( 'NONE',  ( -0.1875000000000000300, 0.0000000000000000000, 0.1250000000000000000 ) ) ;
#52 = CARTESIAN_POINT ( 'NONE',  ( 0.1875000000000000300, 2.296212748401287700E-017, 0.0000000000000000000 ) ) ;
#53 = CARTESIAN_POINT ( 'NONE',  ( -0.1875000000000000300, 0.0000000000000000000, 0.0000000000000000000 ) ) ;
#54 = FILL_AREA_STYLE_COLOUR ( '', #211 ) ;
#55 = FILL_AREA_STYLE ('',( #54 ) ) ;
#56 = SURFACE_STYLE_FILL_AREA ( #55 ) ;
#57 = SURFACE_SIDE_STYLE ('',( #56 ) ) ;
#58 = SURFACE_STYLE_USAGE ( .BOTH. , #57 ) ;
#59 = PRESENTATION_STYLE_ASSIGNMENT (( #58 ) ) ;
#60 =( LENGTH_UNIT ( ) NAMED_UNIT ( * ) SI_UNIT ( $, .METRE. ) );
#61 =( CONVERSION_BASED_UNIT ( 'INCH', #169 ) LENGTH_UNIT ( ) NAMED_UNIT ( #128 ) );
#62 =( NAMED_UNIT ( * ) PLANE_ANGLE_UNIT ( ) SI_UNIT ( $, .RADIAN. ) );
#63 =( NAMED_UNIT ( * ) SI_UNIT ( $, .STERADIAN. ) SOLID_ANGLE_UNIT ( ) );
#64 = LINE ( 'NONE', #65, #172 ) ;
#65 = CARTESIAN_POINT ( 'NONE',  ( 0.1875000000000000300, 2.296212748401287700E-017, 0.1250000000000000000 ) ) ;
#66 = DIRECTION ( 'NONE',  ( -0.0000000000000000000, -0.0000000000000000000, -1.000000000000000000 ) ) ;
#67 = CARTESIAN_POINT ( 'NONE',  ( 0.0000000000000000000, 0.0000000000000000000, 0.1250000000000000000 ) ) ;
#68 = DIRECTION ( 'NONE',  ( 0.0000000000000000000, 0.0000000000000000000, 1.000000000000000000 ) ) ;
#69 = DIRECTION ( 'NONE',  ( 1.000000000000000000, 0.0000000000000000000, 0.0000000000000000000 ) ) ;
#70 = CARTESIAN_POINT ( 'NONE',  ( 0.0000000000000000000, 0.0000000000000000000, 0.0000000000000000000 ) ) ;
#71 = LINE ( 'NONE', #72, #140 ) ;
#72 = CARTESIAN_POINT ( 'NONE',  ( 0.09375000000000001400, 1.148106374200643900E-017, 0.1250000000000000000 ) ) ;
#73 = DIRECTION ( 'NONE',  ( -0.0000000000000000000, -0.0000000000000000000, -1.000000000000000000 ) ) ;
#74 = LINE ( 'NONE', #75, #4 ) ;
#75 = CARTESIAN_POINT ( 'NONE',  ( -0.09375000000000001400, 0.0000000000000000000, 0.1250000000000000000 ) ) ;
#76 = DIRECTION ( 'NONE',  ( -0.0000000000000000000, -0.0000000000000000000, -1.000000000000000000 ) ) ;
#77 = DIRECTION ( 'NONE',  ( 0.0000000000000000000, 0.0000000000000000000, 1.000000000000000000 ) ) ;
#78 = DIRECTION ( 'NONE',  ( 1.000000000000000000, 0.0000000000000000000, 0.0000000000000000000 ) ) ;
#79 = CARTESIAN_POINT ( 'NONE',  ( 0.0000000000000000000, 0.0000000000000000000, 0.0000000000000000000 ) ) ;
#80 = DIRECTION ( 'NONE',  ( 0.0000000000000000000, 0.0000000000000000000, 1.000000000000000000 ) ) ;
#81 = DIRECTION ( 'NONE',  ( 1.000000000000000000, 0.0000000000000000000, 0.0000000000000000000 ) ) ;
#82 = CARTESIAN_POINT ( 'NONE',  ( 0.0000000000000000000, 0.0000000000000000000, 0.1250000000000000000 ) ) ;
#83 = DIRECTION ( 'NONE',  ( 0.0000000000000000000, 0.0000000000000000000, 1.000000000000000000 ) ) ;
#84 = DIRECTION ( 'NONE',  ( 1.000000000000000000, 0.0000000000000000000, 0.0000000000000000000 ) ) ;
#85 = CARTESIAN_POINT ( 'NONE',  ( 0.0000000000000000000, 0.0000000000000000000, 0.0000000000000000000 ) ) ;
#86 = DIRECTION ( 'NONE',  ( 0.0000000000000000000, 0.0000000000000000000, 1.000000000000000000 ) ) ;
#87 = DIRECTION ( 'NONE',  ( 1.000000000000000000, 0.0000000000000000000, 0.0000000000000000000 ) ) ;
#88 = CARTESIAN_POINT ( 'NONE',  ( 0.0000000000000000000, 0.0000000000000000000, 0.1250000000000000000 ) ) ;
#89 = LINE ( 'NONE', #90, #132 ) ;
#90 = CARTESIAN_POINT ( 'NONE',  ( -0.1875000000000000300, 0.0000000000000000000, 0.1250000000000000000 ) ) ;
#91 = DIRECTION ( 'NONE',  ( -0.0000000000000000000, -0.0000000000000000000, -1.000000000000000000 ) ) ;
#92 = DIRECTION ( 'NONE',  ( 0.0000000000000000000, 0.0000000000000000000, 1.000000000000000000 ) ) ;
#93 = DIRECTION ( 'NONE',  ( 1.000000000000000000, 0.0000000000000000000, 0.0000000000000000000 ) ) ;
#94 = CARTESIAN_POINT ( 'NONE',  ( 0.0000000000000000000, 0.0000000000000000000, 0.1250000000000000000 ) ) ;
#95 = DIRECTION ( 'NONE',  ( 0.0000000000000000000, 0.0000000000000000000, 1.000000000000000000 ) ) ;
#96 = DIRECTION ( 'NONE',  ( 1.000000000000000000, 0.0000000000000000000, 0.0000000000000000000 ) ) ;
#97 = CARTESIAN_POINT ( 'NONE',  ( 0.0000000000000000000, 0.0000000000000000000, 0.0000000000000000000 ) ) ;
#98 = DIRECTION ( 'NONE',  ( 0.0000000000000000000, 0.0000000000000000000, 1.000000000000000000 ) ) ;
#99 = DIRECTION ( 'NONE',  ( 1.000000000000000000, 0.0000000000000000000, 0.0000000000000000000 ) ) ;
#100 = CARTESIAN_POINT ( 'NONE',  ( 0.0000000000000000000, 0.0000000000000000000, 0.1250000000000000000 ) ) ;
#101 = DIRECTION ( 'NONE',  ( -0.0000000000000000000, -0.0000000000000000000, -1.000000000000000000 ) ) ;
#102 = DIRECTION ( 'NONE',  ( -1.000000000000000000, 0.0000000000000000000, 0.0000000000000000000 ) ) ;
#103 = CARTESIAN_POINT ( 'NONE',  ( 0.0000000000000000000, 0.0000000000000000000, 0.1250000000000000000 ) ) ;
#104 = DIRECTION ( 'NONE',  ( -0.0000000000000000000, -0.0000000000000000000, -1.000000000000000000 ) ) ;
#105 = DIRECTION ( 'NONE',  ( -1.000000000000000000, 0.0000000000000000000, 0.0000000000000000000 ) ) ;
#106 = CARTESIAN_POINT ( 'NONE',  ( 0.0000000000000000000, 0.0000000000000000000, 0.1250000000000000000 ) ) ;
#107 = DIRECTION ( 'NONE',  ( -0.0000000000000000000, -0.0000000000000000000, -1.000000000000000000 ) ) ;
#108 = DIRECTION ( 'NONE',  ( -1.000000000000000000, 0.0000000000000000000, 0.0000000000000000000 ) ) ;
#109 = PLANE ( 'NONE',  #151 ) ;
#110 = CARTESIAN_POINT ( 'NONE',  ( 0.0000000000000000000, 0.0000000000000000000, 0.0000000000000000000 ) ) ;
#111 = DIRECTION ( 'NONE',  ( 0.0000000000000000000, 0.0000000000000000000, 1.000000000000000000 ) ) ;
#112 = DIRECTION ( 'NONE',  ( 1.000000000000000000, 0.0000000000000000000, -0.0000000000000000000 ) ) ;
#113 = PLANE ( 'NONE',  #154 ) ;
#114 = CARTESIAN_POINT ( 'NONE',  ( 0.0000000000000000000, 0.0000000000000000000, 0.1250000000000000000 ) ) ;
#115 = DIRECTION ( 'NONE',  ( 0.0000000000000000000, 0.0000000000000000000, 1.000000000000000000 ) ) ;
#116 = DIRECTION ( 'NONE',  ( 1.000000000000000000, 0.0000000000000000000, -0.0000000000000000000 ) ) ;
#117 = CARTESIAN_POINT ( 'NONE',  ( 0.0000000000000000000, 0.0000000000000000000, 0.1250000000000000000 ) ) ;
#118 = DIRECTION ( 'NONE',  ( -0.0000000000000000000, -0.0000000000000000000, -1.000000000000000000 ) ) ;
#119 = DIRECTION ( 'NONE',  ( -1.000000000000000000, 0.0000000000000000000, 0.0000000000000000000 ) ) ;
#120 =( LENGTH_UNIT ( ) NAMED_UNIT ( * ) SI_UNIT ( $, .METRE. ) );
#121 =( CONVERSION_BASED_UNIT ( 'INCH', #156 ) LENGTH_UNIT ( ) NAMED_UNIT ( #127 ) );
#122 =( NAMED_UNIT ( * ) PLANE_ANGLE_UNIT ( ) SI_UNIT ( $, .RADIAN. ) );
#123 =( GEOMETRIC_REPRESENTATION_CONTEXT ( 3 ) GLOBAL_UNCERTAINTY_ASSIGNED_CONTEXT ( ( #136 ) ) GLOBAL_UNIT_ASSIGNED_CONTEXT ( ( #181, #180, #179 ) ) REPRESENTATION_CONTEXT ( 'NONE', 'WORKASPACE' ) );
#124 =( GEOMETRIC_REPRESENTATION_CONTEXT ( 3 ) GLOBAL_UNCERTAINTY_ASSIGNED_CONTEXT ( ( #138 ) ) GLOBAL_UNIT_ASSIGNED_CONTEXT ( ( #121, #122, #188 ) ) REPRESENTATION_CONTEXT ( 'NONE', 'WORKASPACE' ) );
#125 = AXIS2_PLACEMENT_3D ( 'NONE', #97, #98, #99 ) ;
#126 = AXIS2_PLACEMENT_3D ( 'NONE', #100, #101, #102 ) ;
#127 = DIMENSIONAL_EXPONENTS ( 1.000000000000000000, 0.0000000000000000000, 0.0000000000000000000, 0.0000000000000000000, 0.0000000000000000000, 0.0000000000000000000, 0.0000000000000000000 ) ;
#128 = DIMENSIONAL_EXPONENTS ( 1.000000000000000000, 0.0000000000000000000, 0.0000000000000000000, 0.0000000000000000000, 0.0000000000000000000, 0.0000000000000000000, 0.0000000000000000000 ) ;
#129 = DIMENSIONAL_EXPONENTS ( 1.000000000000000000, 0.0000000000000000000, 0.0000000000000000000, 0.0000000000000000000, 0.0000000000000000000, 0.0000000000000000000, 0.0000000000000000000 ) ;
#130 = PRODUCT ( 'H125CA2', 'H125CA2', '', ( #174 ) ) ;
#131 = AXIS2_PLACEMENT_3D ( 'NONE', #88, #92, #93 ) ;
#132 = VECTOR ( 'NONE', #91, 39.37007874015748100 ) ;
#133 = PRODUCT_DEFINITION_SHAPE ( 'NONE', 'NONE',  #219 ) ;
#134 = PRODUCT_DEFINITION_CONTEXT ( 'detailed design', #223, 'design' ) ;
#135 = MANIFOLD_SOLID_BREP ( 'Boss-Extrude1', #167 ) ;
#136 = UNCERTAINTY_MEASURE_WITH_UNIT (LENGTH_MEASURE( 1.000000000000000100E-005 ), #181, 'distance_accuracy_value', 'NONE');
#137 = ADVANCED_BREP_SHAPE_REPRESENTATION ( 'H125CA2', ( #135, #161 ), #124 ) ;
#138 = UNCERTAINTY_MEASURE_WITH_UNIT (LENGTH_MEASURE( 1.000000000000000100E-005 ), #121, 'distance_accuracy_value', 'NONE');
#139 = AXIS2_PLACEMENT_3D ( 'NONE', #70, #77, #78 ) ;
#140 = VECTOR ( 'NONE', #73, 39.37007874015748100 ) ;
#141 = AXIS2_PLACEMENT_3D ( 'NONE', #82, #83, #84 ) ;
#142 = CYLINDRICAL_SURFACE ( 'NONE', #143, 0.09375000000000001400 ) ;
#143 = AXIS2_PLACEMENT_3D ( 'NONE', #103, #104, #105 ) ;
#144 = FACE_OUTER_BOUND ( 'NONE', #12, .T. ) ;
#145 = FACE_OUTER_BOUND ( 'NONE', #10, .T. ) ;
#146 = AXIS2_PLACEMENT_3D ( 'NONE', #106, #107, #108 ) ;
#147 = CYLINDRICAL_SURFACE ( 'NONE', #146, 0.1875000000000000300 ) ;
#148 = FACE_BOUND ( 'NONE', #9, .T. ) ;
#149 = FACE_BOUND ( 'NONE', #11, .T. ) ;
#150 = FACE_OUTER_BOUND ( 'NONE', #6, .T. ) ;
#151 = AXIS2_PLACEMENT_3D ( 'NONE', #110, #111, #112 ) ;
#152 = AXIS2_PLACEMENT_3D ( 'NONE', #117, #118, #119 ) ;
#153 = FACE_OUTER_BOUND ( 'NONE', #8, .T. ) ;
#154 = AXIS2_PLACEMENT_3D ( 'NONE', #114, #115, #116 ) ;
#155 = CYLINDRICAL_SURFACE ( 'NONE', #152, 0.1875000000000000300 ) ;
#156 = LENGTH_MEASURE_WITH_UNIT ( LENGTH_MEASURE( 0.02539999999999999900 ), #120 );
#157 = STYLED_ITEM ( 'NONE', ( #183 ), #137 ) ;
#158 = PRESENTATION_LAYER_ASSIGNMENT (  '', '', ( #157 ) ) ;
#159 = MECHANICAL_DESIGN_GEOMETRIC_PRESENTATION_REPRESENTATION (  '', ( #157 ), #123 ) ;
#160 = LENGTH_MEASURE_WITH_UNIT ( LENGTH_MEASURE( 0.02539999999999999900 ), #182 );
#161 = AXIS2_PLACEMENT_3D ( 'NONE', #178, #177, #176 ) ;
#162 = PRODUCT_DEFINITION_FORMATION_WITH_SPECIFIED_SOURCE ( 'ANY', '', #130, .NOT_KNOWN. ) ;
#163 = FACE_OUTER_BOUND ( 'NONE', #13, .T. ) ;
#164 =( GEOMETRIC_REPRESENTATION_CONTEXT ( 3 ) GLOBAL_UNCERTAINTY_ASSIGNED_CONTEXT ( ( #5 ) ) GLOBAL_UNIT_ASSIGNED_CONTEXT ( ( #61, #62, #63 ) ) REPRESENTATION_CONTEXT ( 'NONE', 'WORKASPACE' ) );
#165 = STYLED_ITEM ( 'NONE', ( #59 ), #135 ) ;
#166 = PRESENTATION_LAYER_ASSIGNMENT (  '', '', ( #165 ) ) ;
#167 = CLOSED_SHELL ( 'NONE', ( #204, #209, #208, #207, #206, #205 ) ) ;
#168 = MECHANICAL_DESIGN_GEOMETRIC_PRESENTATION_REPRESENTATION (  '', ( #165 ), #164 ) ;
#169 = LENGTH_MEASURE_WITH_UNIT ( LENGTH_MEASURE( 0.02539999999999999900 ), #60 );
#170 = AXIS2_PLACEMENT_3D ( 'NONE', #67, #68, #69 ) ;
#171 = FACE_OUTER_BOUND ( 'NONE', #7, .T. ) ;
#172 = VECTOR ( 'NONE', #66, 39.37007874015748100 ) ;
#173 = APPLICATION_PROTOCOL_DEFINITION ( 'draft international standard', 'automotive_design', 1998, #223 ) ;
#174 = PRODUCT_CONTEXT ( 'NONE', #222, 'mechanical' ) ;
#175 = SHAPE_DEFINITION_REPRESENTATION ( #133, #137 ) ;
#176 = DIRECTION ( 'NONE',  ( 1.000000000000000000, 0.0000000000000000000, 0.0000000000000000000 ) ) ;
#177 = DIRECTION ( 'NONE',  ( 0.0000000000000000000, 0.0000000000000000000, 1.000000000000000000 ) ) ;
#178 = CARTESIAN_POINT ( 'NONE',  ( 0.0000000000000000000, 0.0000000000000000000, 0.0000000000000000000 ) ) ;
#179 =( NAMED_UNIT ( * ) SI_UNIT ( $, .STERADIAN. ) SOLID_ANGLE_UNIT ( ) );
#180 =( NAMED_UNIT ( * ) PLANE_ANGLE_UNIT ( ) SI_UNIT ( $, .RADIAN. ) );
#181 =( CONVERSION_BASED_UNIT ( 'INCH', #160 ) LENGTH_UNIT ( ) NAMED_UNIT ( #129 ) );
#182 =( LENGTH_UNIT ( ) NAMED_UNIT ( * ) SI_UNIT ( $, .METRE. ) );
#183 = PRESENTATION_STYLE_ASSIGNMENT (( #184 ) ) ;
#184 = SURFACE_STYLE_USAGE ( .BOTH. , #185 ) ;
#185 = SURFACE_SIDE_STYLE ('',( #190 ) ) ;
#186 = FILL_AREA_STYLE ('',( #187 ) ) ;
#187 = FILL_AREA_STYLE_COLOUR ( '', #218 ) ;
#188 =( NAMED_UNIT ( * ) SI_UNIT ( $, .STERADIAN. ) SOLID_ANGLE_UNIT ( ) );
#189 = APPLICATION_PROTOCOL_DEFINITION ( 'draft international standard', 'automotive_design', 1998, #222 ) ;
#190 = SURFACE_STYLE_FILL_AREA ( #186 ) ;
#191 = CIRCLE ( 'NONE', #139, 0.09375000000000001400 ) ;
#192 = EDGE_CURVE ( 'NONE', #42, #44, #64, .T. ) ;
#193 = EDGE_CURVE ( 'NONE', #42, #43, #212, .T. ) ;
#194 = EDGE_CURVE ( 'NONE', #39, #41, #71, .T. ) ;
#195 = EDGE_CURVE ( 'NONE', #38, #40, #74, .T. ) ;
#196 = EDGE_CURVE ( 'NONE', #41, #40, #191, .T. ) ;
#197 = EDGE_CURVE ( 'NONE', #40, #41, #210, .T. ) ;
#198 = EDGE_CURVE ( 'NONE', #38, #39, #213, .T. ) ;
#199 = EDGE_CURVE ( 'NONE', #44, #45, #214, .T. ) ;
#200 = EDGE_CURVE ( 'NONE', #43, #45, #89, .T. ) ;
#201 = EDGE_CURVE ( 'NONE', #43, #42, #215, .T. ) ;
#202 = EDGE_CURVE ( 'NONE', #39, #38, #216, .T. ) ;
#203 = EDGE_CURVE ( 'NONE', #45, #44, #217, .T. ) ;
#204 = ADVANCED_FACE ( 'NONE', ( #171 ), #221, .F. ) ;
#205 = ADVANCED_FACE ( 'NONE', ( #163 ), #142, .F. ) ;
#206 = ADVANCED_FACE ( 'NONE', ( #144 ), #147, .T. ) ;
#207 = ADVANCED_FACE ( 'NONE', ( #145, #149 ), #109, .F. ) ;
#208 = ADVANCED_FACE ( 'NONE', ( #150, #148 ), #113, .T. ) ;
#209 = ADVANCED_FACE ( 'NONE', ( #153 ), #155, .T. ) ;
#210 = CIRCLE ( 'NONE', #1, 0.09375000000000001400 ) ;
#211 = COLOUR_RGB ( '',0.5686274509803921400, 0.5686274509803921400, 0.5882352941176470800 ) ;
#212 = CIRCLE ( 'NONE', #170, 0.1875000000000000300 ) ;
#213 = CIRCLE ( 'NONE', #141, 0.09375000000000001400 ) ;
#214 = CIRCLE ( 'NONE', #3, 0.1875000000000000300 ) ;
#215 = CIRCLE ( 'NONE', #131, 0.1875000000000000300 ) ;
#216 = CIRCLE ( 'NONE', #2, 0.09375000000000001400 ) ;
#217 = CIRCLE ( 'NONE', #125, 0.1875000000000000300 ) ;
#218 = COLOUR_RGB ( '',0.5686274509803921400, 0.5686274509803921400, 0.5882352941176470800 ) ;
#219 = PRODUCT_DEFINITION ( 'UNKNOWN', '', #162, #134 ) ;
#220 = PRODUCT_RELATED_PRODUCT_CATEGORY ( 'part', '', ( #130 ) ) ;
#221 = CYLINDRICAL_SURFACE ( 'NONE', #126, 0.09375000000000001400 ) ;
#222 = APPLICATION_CONTEXT ( 'automotive_design' ) ;
#223 = APPLICATION_CONTEXT ( 'automotive_design' ) ;
ENDSEC;
END-ISO-10303-21;
