ISO-10303-21;
HEADER;
FILE_DESCRIPTION (( 'STEP AP214' ),
    '1' );
FILE_NAME ('H125CF.step',
    '2012-04-20T20:58:37',
    ( '' ),
    ( '' ),
    'SwSTEP 2.0',
    'SolidWorks 2012',
    '' );
FILE_SCHEMA (( 'AUTOMOTIVE_DESIGN' ));
ENDSEC;

DATA;
#1 = CYLINDRICAL_SURFACE ( 'NONE', #2, 0.3750000000000000600 ) ;
#2 = AXIS2_PLACEMENT_3D ( 'NONE', #53, #52, #51 ) ;
#3 = FACE_OUTER_BOUND ( 'NONE', #117, .T. ) ;
#4 =( NAMED_UNIT ( * ) PLANE_ANGLE_UNIT ( ) SI_UNIT ( $, .RADIAN. ) );
#5 =( CONVERSION_BASED_UNIT ( 'INCH', #209 ) LENGTH_UNIT ( ) NAMED_UNIT ( #125 ) );
#6 =( LENGTH_UNIT ( ) NAMED_UNIT ( * ) SI_UNIT ( $, .METRE. ) );
#7 = DIRECTION ( 'NONE',  ( 1.000000000000000000, 0.0000000000000000000, 0.0000000000000000000 ) ) ;
#8 = DIRECTION ( 'NONE',  ( 0.0000000000000000000, 0.0000000000000000000, 1.000000000000000000 ) ) ;
#9 = DIRECTION ( 'NONE',  ( -0.0000000000000000000, -0.0000000000000000000, -1.000000000000000000 ) ) ;
#10 = CARTESIAN_POINT ( 'NONE',  ( 0.3750000000000000600, 4.592425496802575500E-017, 0.1250000000000000000 ) ) ;
#11 = LINE ( 'NONE', #10, #214 ) ;
#12 = CARTESIAN_POINT ( 'NONE',  ( 0.0000000000000000000, 0.0000000000000000000, 0.0000000000000000000 ) ) ;
#13 = DIRECTION ( 'NONE',  ( 1.000000000000000000, 0.0000000000000000000, 0.0000000000000000000 ) ) ;
#14 = DIRECTION ( 'NONE',  ( 0.0000000000000000000, 0.0000000000000000000, 1.000000000000000000 ) ) ;
#15 = CARTESIAN_POINT ( 'NONE',  ( 0.0000000000000000000, 0.0000000000000000000, 0.1250000000000000000 ) ) ;
#16 = DIRECTION ( 'NONE',  ( 1.000000000000000000, 0.0000000000000000000, 0.0000000000000000000 ) ) ;
#17 = DIRECTION ( 'NONE',  ( 0.0000000000000000000, 0.0000000000000000000, 1.000000000000000000 ) ) ;
#18 = DIRECTION ( 'NONE',  ( -0.0000000000000000000, -0.0000000000000000000, -1.000000000000000000 ) ) ;
#19 = CARTESIAN_POINT ( 'NONE',  ( -0.3750000000000000600, 0.0000000000000000000, 0.1250000000000000000 ) ) ;
#20 = LINE ( 'NONE', #19, #212 ) ;
#21 = CARTESIAN_POINT ( 'NONE',  ( 0.0000000000000000000, 0.0000000000000000000, 0.0000000000000000000 ) ) ;
#22 = DIRECTION ( 'NONE',  ( 1.000000000000000000, 0.0000000000000000000, 0.0000000000000000000 ) ) ;
#23 = DIRECTION ( 'NONE',  ( 0.0000000000000000000, 0.0000000000000000000, 1.000000000000000000 ) ) ;
#24 = CARTESIAN_POINT ( 'NONE',  ( 0.0000000000000000000, 0.0000000000000000000, 0.1250000000000000000 ) ) ;
#25 = DIRECTION ( 'NONE',  ( 1.000000000000000000, 0.0000000000000000000, 0.0000000000000000000 ) ) ;
#26 = DIRECTION ( 'NONE',  ( 0.0000000000000000000, 0.0000000000000000000, 1.000000000000000000 ) ) ;
#27 = CARTESIAN_POINT ( 'NONE',  ( 0.0000000000000000000, 0.0000000000000000000, 0.1250000000000000000 ) ) ;
#28 = DIRECTION ( 'NONE',  ( 1.000000000000000000, 0.0000000000000000000, 0.0000000000000000000 ) ) ;
#29 = DIRECTION ( 'NONE',  ( 0.0000000000000000000, 0.0000000000000000000, 1.000000000000000000 ) ) ;
#30 = CARTESIAN_POINT ( 'NONE',  ( 0.0000000000000000000, 0.0000000000000000000, 0.0000000000000000000 ) ) ;
#31 = DIRECTION ( 'NONE',  ( 1.000000000000000000, 0.0000000000000000000, 0.0000000000000000000 ) ) ;
#32 = DIRECTION ( 'NONE',  ( 0.0000000000000000000, 0.0000000000000000000, 1.000000000000000000 ) ) ;
#33 = DIRECTION ( 'NONE',  ( -0.0000000000000000000, -0.0000000000000000000, -1.000000000000000000 ) ) ;
#34 = CARTESIAN_POINT ( 'NONE',  ( 0.1875000000000000300, 2.296212748401287700E-017, 0.1250000000000000000 ) ) ;
#35 = LINE ( 'NONE', #34, #206 ) ;
#36 = CARTESIAN_POINT ( 'NONE',  ( 0.0000000000000000000, 0.0000000000000000000, 0.0000000000000000000 ) ) ;
#37 = DIRECTION ( 'NONE',  ( 1.000000000000000000, 0.0000000000000000000, 0.0000000000000000000 ) ) ;
#38 = DIRECTION ( 'NONE',  ( 0.0000000000000000000, 0.0000000000000000000, 1.000000000000000000 ) ) ;
#39 = CARTESIAN_POINT ( 'NONE',  ( 0.0000000000000000000, 0.0000000000000000000, 0.1250000000000000000 ) ) ;
#40 = DIRECTION ( 'NONE',  ( 1.000000000000000000, 0.0000000000000000000, -0.0000000000000000000 ) ) ;
#41 = DIRECTION ( 'NONE',  ( 0.0000000000000000000, 0.0000000000000000000, 1.000000000000000000 ) ) ;
#42 = CARTESIAN_POINT ( 'NONE',  ( 0.0000000000000000000, 0.0000000000000000000, 0.0000000000000000000 ) ) ;
#43 = PLANE ( 'NONE',  #203 ) ;
#44 = DIRECTION ( 'NONE',  ( -1.000000000000000000, 0.0000000000000000000, 0.0000000000000000000 ) ) ;
#45 = DIRECTION ( 'NONE',  ( -0.0000000000000000000, -0.0000000000000000000, -1.000000000000000000 ) ) ;
#46 = CARTESIAN_POINT ( 'NONE',  ( 0.0000000000000000000, 0.0000000000000000000, 0.1250000000000000000 ) ) ;
#47 = DIRECTION ( 'NONE',  ( 1.000000000000000000, 0.0000000000000000000, -0.0000000000000000000 ) ) ;
#48 = DIRECTION ( 'NONE',  ( 0.0000000000000000000, 0.0000000000000000000, 1.000000000000000000 ) ) ;
#49 = CARTESIAN_POINT ( 'NONE',  ( 0.0000000000000000000, 0.0000000000000000000, 0.1250000000000000000 ) ) ;
#50 = PLANE ( 'NONE',  #136 ) ;
#51 = DIRECTION ( 'NONE',  ( -1.000000000000000000, 0.0000000000000000000, 0.0000000000000000000 ) ) ;
#52 = DIRECTION ( 'NONE',  ( -0.0000000000000000000, -0.0000000000000000000, -1.000000000000000000 ) ) ;
#53 = CARTESIAN_POINT ( 'NONE',  ( 0.0000000000000000000, 0.0000000000000000000, 0.1250000000000000000 ) ) ;
#54 = DIRECTION ( 'NONE',  ( -0.0000000000000000000, -0.0000000000000000000, -1.000000000000000000 ) ) ;
#55 = DIRECTION ( 'NONE',  ( -1.000000000000000000, 0.0000000000000000000, 0.0000000000000000000 ) ) ;
#56 = CARTESIAN_POINT ( 'NONE',  ( 0.0000000000000000000, 0.0000000000000000000, 0.1250000000000000000 ) ) ;
#57 = DIRECTION ( 'NONE',  ( -1.000000000000000000, 0.0000000000000000000, 0.0000000000000000000 ) ) ;
#58 = DIRECTION ( 'NONE',  ( -0.0000000000000000000, -0.0000000000000000000, -1.000000000000000000 ) ) ;
#59 = CARTESIAN_POINT ( 'NONE',  ( 0.0000000000000000000, 0.0000000000000000000, 0.1250000000000000000 ) ) ;
#60 = DIRECTION ( 'NONE',  ( -0.0000000000000000000, -0.0000000000000000000, -1.000000000000000000 ) ) ;
#61 = CARTESIAN_POINT ( 'NONE',  ( -0.1875000000000000300, 0.0000000000000000000, 0.1250000000000000000 ) ) ;
#62 = LINE ( 'NONE', #61, #140 ) ;
#63 = EDGE_LOOP ( 'NONE', ( #104, #101 ) ) ;
#64 = EDGE_LOOP ( 'NONE', ( #107, #102 ) ) ;
#65 = EDGE_LOOP ( 'NONE', ( #108, #105 ) ) ;
#66 =( NAMED_UNIT ( * ) SI_UNIT ( $, .STERADIAN. ) SOLID_ANGLE_UNIT ( ) );
#67 =( NAMED_UNIT ( * ) PLANE_ANGLE_UNIT ( ) SI_UNIT ( $, .RADIAN. ) );
#68 =( CONVERSION_BASED_UNIT ( 'INCH', #144 ) LENGTH_UNIT ( ) NAMED_UNIT ( #126 ) );
#69 =( LENGTH_UNIT ( ) NAMED_UNIT ( * ) SI_UNIT ( $, .METRE. ) );
#70 = PRESENTATION_STYLE_ASSIGNMENT (( #71 ) ) ;
#71 = SURFACE_STYLE_USAGE ( .BOTH. , #72 ) ;
#72 = SURFACE_SIDE_STYLE ('',( #73 ) ) ;
#73 = SURFACE_STYLE_FILL_AREA ( #74 ) ;
#74 = FILL_AREA_STYLE ('',( #75 ) ) ;
#75 = FILL_AREA_STYLE_COLOUR ( '', #179 ) ;
#76 = CARTESIAN_POINT ( 'NONE',  ( -0.1875000000000000300, 0.0000000000000000000, 0.0000000000000000000 ) ) ;
#77 = CARTESIAN_POINT ( 'NONE',  ( -0.3750000000000000600, 0.0000000000000000000, 0.0000000000000000000 ) ) ;
#78 = CARTESIAN_POINT ( 'NONE',  ( 0.3750000000000000600, 4.592425496802575500E-017, 0.0000000000000000000 ) ) ;
#79 = CARTESIAN_POINT ( 'NONE',  ( -0.3750000000000000600, 0.0000000000000000000, 0.1250000000000000000 ) ) ;
#80 = CARTESIAN_POINT ( 'NONE',  ( 0.3750000000000000600, 4.592425496802575500E-017, 0.1250000000000000000 ) ) ;
#81 = CARTESIAN_POINT ( 'NONE',  ( 0.1875000000000000300, 2.296212748401287700E-017, 0.0000000000000000000 ) ) ;
#82 = CARTESIAN_POINT ( 'NONE',  ( 0.1875000000000000300, 2.296212748401287700E-017, 0.1250000000000000000 ) ) ;
#83 = CARTESIAN_POINT ( 'NONE',  ( -0.1875000000000000300, 0.0000000000000000000, 0.1250000000000000000 ) ) ;
#84 = VERTEX_POINT ( 'NONE', #83 ) ;
#85 = VERTEX_POINT ( 'NONE', #82 ) ;
#86 = VERTEX_POINT ( 'NONE', #81 ) ;
#87 = VERTEX_POINT ( 'NONE', #80 ) ;
#88 = VERTEX_POINT ( 'NONE', #79 ) ;
#89 = VERTEX_POINT ( 'NONE', #78 ) ;
#90 = VERTEX_POINT ( 'NONE', #77 ) ;
#91 = VERTEX_POINT ( 'NONE', #76 ) ;
#92 = ORIENTED_EDGE ( 'NONE', *, *, #174, .T. ) ;
#93 = ORIENTED_EDGE ( 'NONE', *, *, #200, .F. ) ;
#94 = ORIENTED_EDGE ( 'NONE', *, *, #190, .T. ) ;
#95 = ORIENTED_EDGE ( 'NONE', *, *, #194, .T. ) ;
#96 = ORIENTED_EDGE ( 'NONE', *, *, #191, .F. ) ;
#97 = ORIENTED_EDGE ( 'NONE', *, *, #192, .F. ) ;
#98 = ORIENTED_EDGE ( 'NONE', *, *, #196, .T. ) ;
#99 = ORIENTED_EDGE ( 'NONE', *, *, #195, .F. ) ;
#100 = ORIENTED_EDGE ( 'NONE', *, *, #193, .T. ) ;
#101 = ORIENTED_EDGE ( 'NONE', *, *, #192, .T. ) ;
#102 = ORIENTED_EDGE ( 'NONE', *, *, #197, .F. ) ;
#103 = ORIENTED_EDGE ( 'NONE', *, *, #199, .F. ) ;
#104 = ORIENTED_EDGE ( 'NONE', *, *, #200, .T. ) ;
#105 = ORIENTED_EDGE ( 'NONE', *, *, #194, .F. ) ;
#106 = ORIENTED_EDGE ( 'NONE', *, *, #198, .T. ) ;
#107 = ORIENTED_EDGE ( 'NONE', *, *, #193, .F. ) ;
#108 = ORIENTED_EDGE ( 'NONE', *, *, #190, .F. ) ;
#109 = ORIENTED_EDGE ( 'NONE', *, *, #195, .T. ) ;
#110 = ORIENTED_EDGE ( 'NONE', *, *, #196, .F. ) ;
#111 = ORIENTED_EDGE ( 'NONE', *, *, #199, .T. ) ;
#112 = ORIENTED_EDGE ( 'NONE', *, *, #197, .T. ) ;
#113 = ORIENTED_EDGE ( 'NONE', *, *, #198, .F. ) ;
#114 = ORIENTED_EDGE ( 'NONE', *, *, #191, .T. ) ;
#115 = ORIENTED_EDGE ( 'NONE', *, *, #174, .F. ) ;
#116 = EDGE_LOOP ( 'NONE', ( #96, #95, #92, #97 ) ) ;
#117 = EDGE_LOOP ( 'NONE', ( #109, #106 ) ) ;
#118 = EDGE_LOOP ( 'NONE', ( #94, #114, #93, #115 ) ) ;
#119 = EDGE_LOOP ( 'NONE', ( #113, #111, #112, #110 ) ) ;
#120 = EDGE_LOOP ( 'NONE', ( #103, #99, #98, #100 ) ) ;
#121 = CYLINDRICAL_SURFACE ( 'NONE', #123, 0.1875000000000000300 ) ;
#122 = FACE_OUTER_BOUND ( 'NONE', #118, .T. ) ;
#123 = AXIS2_PLACEMENT_3D ( 'NONE', #56, #54, #55 ) ;
#124 = FACE_OUTER_BOUND ( 'NONE', #119, .T. ) ;
#125 = DIMENSIONAL_EXPONENTS ( 1.000000000000000000, 0.0000000000000000000, 0.0000000000000000000, 0.0000000000000000000, 0.0000000000000000000, 0.0000000000000000000, 0.0000000000000000000 ) ;
#126 = DIMENSIONAL_EXPONENTS ( 1.000000000000000000, 0.0000000000000000000, 0.0000000000000000000, 0.0000000000000000000, 0.0000000000000000000, 0.0000000000000000000, 0.0000000000000000000 ) ;
#127 = DIMENSIONAL_EXPONENTS ( 1.000000000000000000, 0.0000000000000000000, 0.0000000000000000000, 0.0000000000000000000, 0.0000000000000000000, 0.0000000000000000000, 0.0000000000000000000 ) ;
#128 = PRODUCT ( 'H125CF', 'H125CF', '', ( #155 ) ) ;
#129 = FACE_OUTER_BOUND ( 'NONE', #64, .T. ) ;
#130 = MANIFOLD_SOLID_BREP ( 'Boss-Extrude1', #145 ) ;
#131 = PRODUCT_DEFINITION_SHAPE ( 'NONE', 'NONE',  #173 ) ;
#132 = PRODUCT_DEFINITION_CONTEXT ( 'detailed design', #223, 'design' ) ;
#133 = ADVANCED_BREP_SHAPE_REPRESENTATION ( 'H125CF', ( #130, #219 ), #151 ) ;
#134 = FACE_BOUND ( 'NONE', #65, .T. ) ;
#135 = CYLINDRICAL_SURFACE ( 'NONE', #221, 0.3750000000000000600 ) ;
#136 = AXIS2_PLACEMENT_3D ( 'NONE', #49, #48, #47 ) ;
#137 = UNCERTAINTY_MEASURE_WITH_UNIT (LENGTH_MEASURE( 1.000000000000000100E-005 ), #5, 'distance_accuracy_value', 'NONE');
#138 = UNCERTAINTY_MEASURE_WITH_UNIT (LENGTH_MEASURE( 1.000000000000000100E-005 ), #159, 'distance_accuracy_value', 'NONE');
#139 = UNCERTAINTY_MEASURE_WITH_UNIT (LENGTH_MEASURE( 1.000000000000000100E-005 ), #68, 'distance_accuracy_value', 'NONE');
#140 = VECTOR ( 'NONE', #60, 39.37007874015748100 ) ;
#141 = AXIS2_PLACEMENT_3D ( 'NONE', #59, #58, #57 ) ;
#142 = STYLED_ITEM ( 'NONE', ( #70 ), #130 ) ;
#143 = MECHANICAL_DESIGN_GEOMETRIC_PRESENTATION_REPRESENTATION (  '', ( #142 ), #150 ) ;
#144 = LENGTH_MEASURE_WITH_UNIT ( LENGTH_MEASURE( 0.02539999999999999900 ), #69 );
#145 = CLOSED_SHELL ( 'NONE', ( #185, #186, #187, #189, #188, #184 ) ) ;
#146 = PRESENTATION_LAYER_ASSIGNMENT (  '', '', ( #142 ) ) ;
#147 = FACE_OUTER_BOUND ( 'NONE', #116, .T. ) ;
#148 = FACE_OUTER_BOUND ( 'NONE', #120, .T. ) ;
#149 = CYLINDRICAL_SURFACE ( 'NONE', #141, 0.1875000000000000300 ) ;
#150 =( GEOMETRIC_REPRESENTATION_CONTEXT ( 3 ) GLOBAL_UNCERTAINTY_ASSIGNED_CONTEXT ( ( #139 ) ) GLOBAL_UNIT_ASSIGNED_CONTEXT ( ( #68, #67, #66 ) ) REPRESENTATION_CONTEXT ( 'NONE', 'WORKASPACE' ) );
#151 =( GEOMETRIC_REPRESENTATION_CONTEXT ( 3 ) GLOBAL_UNCERTAINTY_ASSIGNED_CONTEXT ( ( #137 ) ) GLOBAL_UNIT_ASSIGNED_CONTEXT ( ( #5, #4, #170 ) ) REPRESENTATION_CONTEXT ( 'NONE', 'WORKASPACE' ) );
#152 =( GEOMETRIC_REPRESENTATION_CONTEXT ( 3 ) GLOBAL_UNCERTAINTY_ASSIGNED_CONTEXT ( ( #138 ) ) GLOBAL_UNIT_ASSIGNED_CONTEXT ( ( #159, #158, #153 ) ) REPRESENTATION_CONTEXT ( 'NONE', 'WORKASPACE' ) );
#153 =( NAMED_UNIT ( * ) SI_UNIT ( $, .STERADIAN. ) SOLID_ANGLE_UNIT ( ) );
#154 = APPLICATION_PROTOCOL_DEFINITION ( 'draft international standard', 'automotive_design', 1998, #223 ) ;
#155 = PRODUCT_CONTEXT ( 'NONE', #222, 'mechanical' ) ;
#156 = SHAPE_DEFINITION_REPRESENTATION ( #131, #133 ) ;
#157 = DIRECTION ( 'NONE',  ( 1.000000000000000000, 0.0000000000000000000, 0.0000000000000000000 ) ) ;
#158 =( NAMED_UNIT ( * ) PLANE_ANGLE_UNIT ( ) SI_UNIT ( $, .RADIAN. ) );
#159 =( CONVERSION_BASED_UNIT ( 'INCH', #218 ) LENGTH_UNIT ( ) NAMED_UNIT ( #127 ) );
#160 = DIRECTION ( 'NONE',  ( 0.0000000000000000000, 0.0000000000000000000, 1.000000000000000000 ) ) ;
#161 = CARTESIAN_POINT ( 'NONE',  ( 0.0000000000000000000, 0.0000000000000000000, 0.0000000000000000000 ) ) ;
#162 =( LENGTH_UNIT ( ) NAMED_UNIT ( * ) SI_UNIT ( $, .METRE. ) );
#163 = PRESENTATION_STYLE_ASSIGNMENT (( #165 ) ) ;
#164 = SURFACE_STYLE_FILL_AREA ( #168 ) ;
#165 = SURFACE_STYLE_USAGE ( .BOTH. , #166 ) ;
#166 = SURFACE_SIDE_STYLE ('',( #164 ) ) ;
#167 = FILL_AREA_STYLE_COLOUR ( '', #175 ) ;
#168 = FILL_AREA_STYLE ('',( #167 ) ) ;
#169 = APPLICATION_PROTOCOL_DEFINITION ( 'draft international standard', 'automotive_design', 1998, #222 ) ;
#170 =( NAMED_UNIT ( * ) SI_UNIT ( $, .STERADIAN. ) SOLID_ANGLE_UNIT ( ) );
#171 = PRODUCT_RELATED_PRODUCT_CATEGORY ( 'part', '', ( #128 ) ) ;
#172 = CIRCLE ( 'NONE', #208, 0.1875000000000000300 ) ;
#173 = PRODUCT_DEFINITION ( 'UNKNOWN', '', #220, #132 ) ;
#174 = EDGE_CURVE ( 'NONE', #84, #91, #62, .T. ) ;
#175 = COLOUR_RGB ( '',0.5686274509803921400, 0.5686274509803921400, 0.5882352941176470800 ) ;
#176 = CIRCLE ( 'NONE', #211, 0.1875000000000000300 ) ;
#177 = CIRCLE ( 'NONE', #213, 0.3750000000000000600 ) ;
#178 = CIRCLE ( 'NONE', #210, 0.3750000000000000600 ) ;
#179 = COLOUR_RGB ( '',0.5686274509803921400, 0.5686274509803921400, 0.5882352941176470800 ) ;
#180 = CIRCLE ( 'NONE', #204, 0.3750000000000000600 ) ;
#181 = CIRCLE ( 'NONE', #202, 0.1875000000000000300 ) ;
#182 = CIRCLE ( 'NONE', #205, 0.1875000000000000300 ) ;
#183 = CIRCLE ( 'NONE', #207, 0.3750000000000000600 ) ;
#184 = ADVANCED_FACE ( 'NONE', ( #147 ), #149, .F. ) ;
#185 = ADVANCED_FACE ( 'NONE', ( #122 ), #121, .F. ) ;
#186 = ADVANCED_FACE ( 'NONE', ( #124 ), #1, .T. ) ;
#187 = ADVANCED_FACE ( 'NONE', ( #3, #134 ), #50, .T. ) ;
#188 = ADVANCED_FACE ( 'NONE', ( #148 ), #135, .T. ) ;
#189 = ADVANCED_FACE ( 'NONE', ( #129, #201 ), #43, .F. ) ;
#190 = EDGE_CURVE ( 'NONE', #84, #85, #181, .T. ) ;
#191 = EDGE_CURVE ( 'NONE', #85, #86, #35, .T. ) ;
#192 = EDGE_CURVE ( 'NONE', #86, #91, #182, .T. ) ;
#193 = EDGE_CURVE ( 'NONE', #90, #89, #183, .T. ) ;
#194 = EDGE_CURVE ( 'NONE', #85, #84, #172, .T. ) ;
#195 = EDGE_CURVE ( 'NONE', #88, #87, #180, .T. ) ;
#196 = EDGE_CURVE ( 'NONE', #88, #90, #20, .T. ) ;
#197 = EDGE_CURVE ( 'NONE', #89, #90, #178, .T. ) ;
#198 = EDGE_CURVE ( 'NONE', #87, #88, #177, .T. ) ;
#199 = EDGE_CURVE ( 'NONE', #87, #89, #11, .T. ) ;
#200 = EDGE_CURVE ( 'NONE', #91, #86, #176, .T. ) ;
#201 = FACE_BOUND ( 'NONE', #63, .T. ) ;
#202 = AXIS2_PLACEMENT_3D ( 'NONE', #39, #38, #37 ) ;
#203 = AXIS2_PLACEMENT_3D ( 'NONE', #42, #41, #40 ) ;
#204 = AXIS2_PLACEMENT_3D ( 'NONE', #24, #23, #22 ) ;
#205 = AXIS2_PLACEMENT_3D ( 'NONE', #36, #32, #31 ) ;
#206 = VECTOR ( 'NONE', #33, 39.37007874015748100 ) ;
#207 = AXIS2_PLACEMENT_3D ( 'NONE', #30, #29, #28 ) ;
#208 = AXIS2_PLACEMENT_3D ( 'NONE', #27, #26, #25 ) ;
#209 = LENGTH_MEASURE_WITH_UNIT ( LENGTH_MEASURE( 0.02539999999999999900 ), #6 );
#210 = AXIS2_PLACEMENT_3D ( 'NONE', #21, #17, #16 ) ;
#211 = AXIS2_PLACEMENT_3D ( 'NONE', #12, #8, #7 ) ;
#212 = VECTOR ( 'NONE', #18, 39.37007874015748100 ) ;
#213 = AXIS2_PLACEMENT_3D ( 'NONE', #15, #14, #13 ) ;
#214 = VECTOR ( 'NONE', #9, 39.37007874015748100 ) ;
#215 = STYLED_ITEM ( 'NONE', ( #163 ), #133 ) ;
#216 = PRESENTATION_LAYER_ASSIGNMENT (  '', '', ( #215 ) ) ;
#217 = MECHANICAL_DESIGN_GEOMETRIC_PRESENTATION_REPRESENTATION (  '', ( #215 ), #152 ) ;
#218 = LENGTH_MEASURE_WITH_UNIT ( LENGTH_MEASURE( 0.02539999999999999900 ), #162 );
#219 = AXIS2_PLACEMENT_3D ( 'NONE', #161, #160, #157 ) ;
#220 = PRODUCT_DEFINITION_FORMATION_WITH_SPECIFIED_SOURCE ( 'ANY', '', #128, .NOT_KNOWN. ) ;
#221 = AXIS2_PLACEMENT_3D ( 'NONE', #46, #45, #44 ) ;
#222 = APPLICATION_CONTEXT ( 'automotive_design' ) ;
#223 = APPLICATION_CONTEXT ( 'automotive_design' ) ;
ENDSEC;
END-ISO-10303-21;
