ISO-10303-21;
HEADER;
FILE_DESCRIPTION (( 'STEP AP214' ),
    '1' );
FILE_NAME ('H20933-AXIAL.step',
    '2012-04-20T20:58:55',
    ( '' ),
    ( '' ),
    'SwSTEP 2.0',
    'SolidWorks 2012',
    '' );
FILE_SCHEMA (( 'AUTOMOTIVE_DESIGN' ));
ENDSEC;

DATA;
#1 = DIRECTION ( 'NONE',  ( -1.000000000000000000, 0.0000000000000000000, 0.0000000000000000000 ) ) ;
#2 = DIRECTION ( 'NONE',  ( -0.0000000000000000000, -0.0000000000000000000, -1.000000000000000000 ) ) ;
#3 = CARTESIAN_POINT ( 'NONE',  ( 0.0000000000000000000, 0.0000000000000000000, 0.07900000000000000100 ) ) ;
#4 = DIRECTION ( 'NONE',  ( -1.000000000000000000, 0.0000000000000000000, 0.0000000000000000000 ) ) ;
#5 = DIRECTION ( 'NONE',  ( -0.0000000000000000000, -0.0000000000000000000, -1.000000000000000000 ) ) ;
#6 = CARTESIAN_POINT ( 'NONE',  ( 0.0000000000000000000, 0.0000000000000000000, 0.07900000000000000100 ) ) ;
#7 = DIRECTION ( 'NONE',  ( 1.000000000000000000, 0.0000000000000000000, -0.0000000000000000000 ) ) ;
#8 = DIRECTION ( 'NONE',  ( 0.0000000000000000000, 0.0000000000000000000, 1.000000000000000000 ) ) ;
#9 = CARTESIAN_POINT ( 'NONE',  ( 0.0000000000000000000, 0.0000000000000000000, 0.0000000000000000000 ) ) ;
#10 = PLANE ( 'NONE',  #198 ) ;
#11 = DIRECTION ( 'NONE',  ( -1.000000000000000000, 0.0000000000000000000, 0.0000000000000000000 ) ) ;
#12 = DIRECTION ( 'NONE',  ( -0.0000000000000000000, -0.0000000000000000000, -1.000000000000000000 ) ) ;
#13 = CARTESIAN_POINT ( 'NONE',  ( 0.0000000000000000000, 0.0000000000000000000, 0.07900000000000000100 ) ) ;
#14 = DIRECTION ( 'NONE',  ( 1.000000000000000000, 0.0000000000000000000, 0.0000000000000000000 ) ) ;
#15 = DIRECTION ( 'NONE',  ( 0.0000000000000000000, 0.0000000000000000000, 1.000000000000000000 ) ) ;
#16 = CARTESIAN_POINT ( 'NONE',  ( 0.0000000000000000000, 0.0000000000000000000, 0.0000000000000000000 ) ) ;
#17 = DIRECTION ( 'NONE',  ( -1.000000000000000000, 0.0000000000000000000, 0.0000000000000000000 ) ) ;
#18 = DIRECTION ( 'NONE',  ( -0.0000000000000000000, -0.0000000000000000000, -1.000000000000000000 ) ) ;
#19 = CARTESIAN_POINT ( 'NONE',  ( 0.0000000000000000000, 0.0000000000000000000, 0.07900000000000000100 ) ) ;
#20 = DIRECTION ( 'NONE',  ( 1.000000000000000000, 0.0000000000000000000, 0.0000000000000000000 ) ) ;
#21 = DIRECTION ( 'NONE',  ( 0.0000000000000000000, 0.0000000000000000000, 1.000000000000000000 ) ) ;
#22 = CARTESIAN_POINT ( 'NONE',  ( 0.0000000000000000000, 0.0000000000000000000, 0.07900000000000000100 ) ) ;
#23 = DIRECTION ( 'NONE',  ( 1.000000000000000000, 0.0000000000000000000, 0.0000000000000000000 ) ) ;
#24 = DIRECTION ( 'NONE',  ( 0.0000000000000000000, 0.0000000000000000000, 1.000000000000000000 ) ) ;
#25 = CARTESIAN_POINT ( 'NONE',  ( 0.0000000000000000000, 0.0000000000000000000, 0.07900000000000000100 ) ) ;
#26 = DIRECTION ( 'NONE',  ( 1.000000000000000000, 0.0000000000000000000, 0.0000000000000000000 ) ) ;
#27 = DIRECTION ( 'NONE',  ( 0.0000000000000000000, 0.0000000000000000000, 1.000000000000000000 ) ) ;
#28 = CARTESIAN_POINT ( 'NONE',  ( 0.0000000000000000000, 0.0000000000000000000, 0.0000000000000000000 ) ) ;
#29 = DIRECTION ( 'NONE',  ( 1.000000000000000000, 0.0000000000000000000, 0.0000000000000000000 ) ) ;
#30 = DIRECTION ( 'NONE',  ( 0.0000000000000000000, 0.0000000000000000000, 1.000000000000000000 ) ) ;
#31 = DIRECTION ( 'NONE',  ( -0.0000000000000000000, -0.0000000000000000000, -1.000000000000000000 ) ) ;
#32 = CARTESIAN_POINT ( 'NONE',  ( -0.2650000000000000100, 0.0000000000000000000, 0.07900000000000000100 ) ) ;
#33 = LINE ( 'NONE', #32, #185 ) ;
#34 = DIRECTION ( 'NONE',  ( -0.0000000000000000000, -0.0000000000000000000, -1.000000000000000000 ) ) ;
#35 = CARTESIAN_POINT ( 'NONE',  ( 0.1860000000000000000, 2.277843046414077200E-017, 0.07900000000000000100 ) ) ;
#36 = LINE ( 'NONE', #35, #183 ) ;
#37 = CARTESIAN_POINT ( 'NONE',  ( 0.0000000000000000000, 0.0000000000000000000, 0.0000000000000000000 ) ) ;
#38 = DIRECTION ( 'NONE',  ( 1.000000000000000000, 0.0000000000000000000, 0.0000000000000000000 ) ) ;
#39 = DIRECTION ( 'NONE',  ( 0.0000000000000000000, 0.0000000000000000000, 1.000000000000000000 ) ) ;
#40 = CARTESIAN_POINT ( 'NONE',  ( 0.0000000000000000000, 0.0000000000000000000, 0.07900000000000000100 ) ) ;
#41 = DIRECTION ( 'NONE',  ( 1.000000000000000000, 0.0000000000000000000, 0.0000000000000000000 ) ) ;
#42 = DIRECTION ( 'NONE',  ( 0.0000000000000000000, 0.0000000000000000000, 1.000000000000000000 ) ) ;
#43 = DIRECTION ( 'NONE',  ( -0.0000000000000000000, -0.0000000000000000000, -1.000000000000000000 ) ) ;
#44 = CARTESIAN_POINT ( 'NONE',  ( -0.1860000000000000000, 0.0000000000000000000, 0.07900000000000000100 ) ) ;
#45 = LINE ( 'NONE', #44, #180 ) ;
#46 = DIRECTION ( 'NONE',  ( -0.0000000000000000000, -0.0000000000000000000, -1.000000000000000000 ) ) ;
#47 = CARTESIAN_POINT ( 'NONE',  ( 0.2650000000000000100, 3.245314017740486200E-017, 0.07900000000000000100 ) ) ;
#48 = LINE ( 'NONE', #47, #179 ) ;
#49 = CARTESIAN_POINT ( 'NONE',  ( 0.0000000000000000000, 0.0000000000000000000, 0.0000000000000000000 ) ) ;
#50 = DIRECTION ( 'NONE',  ( 1.000000000000000000, 0.0000000000000000000, 0.0000000000000000000 ) ) ;
#51 = DIRECTION ( 'NONE',  ( 0.0000000000000000000, 0.0000000000000000000, 1.000000000000000000 ) ) ;
#52 = CARTESIAN_POINT ( 'NONE',  ( 0.0000000000000000000, 0.0000000000000000000, 0.07900000000000000100 ) ) ;
#53 =( NAMED_UNIT ( * ) SI_UNIT ( $, .STERADIAN. ) SOLID_ANGLE_UNIT ( ) );
#54 =( NAMED_UNIT ( * ) PLANE_ANGLE_UNIT ( ) SI_UNIT ( $, .RADIAN. ) );
#55 = SURFACE_STYLE_USAGE ( .BOTH. , #58 ) ;
#56 = FILL_AREA_STYLE ('',( #57 ) ) ;
#57 = FILL_AREA_STYLE_COLOUR ( '', #221 ) ;
#58 = SURFACE_SIDE_STYLE ('',( #60 ) ) ;
#59 = PRESENTATION_STYLE_ASSIGNMENT (( #55 ) ) ;
#60 = SURFACE_STYLE_FILL_AREA ( #56 ) ;
#61 =( CONVERSION_BASED_UNIT ( 'INCH', #142 ) LENGTH_UNIT ( ) NAMED_UNIT ( #115 ) );
#62 = CARTESIAN_POINT ( 'NONE',  ( -0.1860000000000000000, 0.0000000000000000000, 0.0000000000000000000 ) ) ;
#63 =( LENGTH_UNIT ( ) NAMED_UNIT ( * ) SI_UNIT ( $, .METRE. ) );
#64 = CARTESIAN_POINT ( 'NONE',  ( 0.1860000000000000000, 2.277843046414077200E-017, 0.0000000000000000000 ) ) ;
#65 = CARTESIAN_POINT ( 'NONE',  ( -0.1860000000000000000, 0.0000000000000000000, 0.07900000000000000100 ) ) ;
#66 = CARTESIAN_POINT ( 'NONE',  ( -0.2650000000000000100, 0.0000000000000000000, 0.0000000000000000000 ) ) ;
#67 = CARTESIAN_POINT ( 'NONE',  ( 0.2650000000000000100, 3.245314017740486200E-017, 0.0000000000000000000 ) ) ;
#68 = CARTESIAN_POINT ( 'NONE',  ( -0.2650000000000000100, 0.0000000000000000000, 0.07900000000000000100 ) ) ;
#69 = CARTESIAN_POINT ( 'NONE',  ( 0.2650000000000000100, 3.245314017740486200E-017, 0.07900000000000000100 ) ) ;
#70 = CARTESIAN_POINT ( 'NONE',  ( 0.1860000000000000000, 2.277843046414077200E-017, 0.07900000000000000100 ) ) ;
#71 = VERTEX_POINT ( 'NONE', #70 ) ;
#72 = VERTEX_POINT ( 'NONE', #69 ) ;
#73 = VERTEX_POINT ( 'NONE', #68 ) ;
#74 = VERTEX_POINT ( 'NONE', #67 ) ;
#75 = VERTEX_POINT ( 'NONE', #66 ) ;
#76 = VERTEX_POINT ( 'NONE', #65 ) ;
#77 = VERTEX_POINT ( 'NONE', #64 ) ;
#78 = VERTEX_POINT ( 'NONE', #62 ) ;
#79 = ORIENTED_EDGE ( 'NONE', *, *, #170, .F. ) ;
#80 = ORIENTED_EDGE ( 'NONE', *, *, #172, .F. ) ;
#81 = ORIENTED_EDGE ( 'NONE', *, *, #122, .F. ) ;
#82 = ORIENTED_EDGE ( 'NONE', *, *, #120, .T. ) ;
#83 = ORIENTED_EDGE ( 'NONE', *, *, #124, .T. ) ;
#84 = ORIENTED_EDGE ( 'NONE', *, *, #172, .T. ) ;
#85 = ORIENTED_EDGE ( 'NONE', *, *, #173, .T. ) ;
#86 = ORIENTED_EDGE ( 'NONE', *, *, #169, .F. ) ;
#87 = ORIENTED_EDGE ( 'NONE', *, *, #126, .F. ) ;
#88 = ORIENTED_EDGE ( 'NONE', *, *, #169, .T. ) ;
#89 = ORIENTED_EDGE ( 'NONE', *, *, #125, .F. ) ;
#90 = ORIENTED_EDGE ( 'NONE', *, *, #171, .F. ) ;
#91 = ORIENTED_EDGE ( 'NONE', *, *, #122, .T. ) ;
#92 = ORIENTED_EDGE ( 'NONE', *, *, #175, .T. ) ;
#93 = ORIENTED_EDGE ( 'NONE', *, *, #170, .T. ) ;
#94 = ORIENTED_EDGE ( 'NONE', *, *, #125, .T. ) ;
#95 = ORIENTED_EDGE ( 'NONE', *, *, #171, .T. ) ;
#96 = ORIENTED_EDGE ( 'NONE', *, *, #173, .F. ) ;
#97 = ORIENTED_EDGE ( 'NONE', *, *, #124, .F. ) ;
#98 = ORIENTED_EDGE ( 'NONE', *, *, #126, .T. ) ;
#99 = ORIENTED_EDGE ( 'NONE', *, *, #123, .F. ) ;
#100 = ORIENTED_EDGE ( 'NONE', *, *, #120, .F. ) ;
#101 = ORIENTED_EDGE ( 'NONE', *, *, #175, .F. ) ;
#102 = ORIENTED_EDGE ( 'NONE', *, *, #123, .T. ) ;
#103 = EDGE_LOOP ( 'NONE', ( #87, #85, #102, #79 ) ) ;
#104 = EDGE_LOOP ( 'NONE', ( #101, #90 ) ) ;
#105 = EDGE_LOOP ( 'NONE', ( #83, #93 ) ) ;
#106 = EDGE_LOOP ( 'NONE', ( #81, #80, #88, #92 ) ) ;
#107 = EDGE_LOOP ( 'NONE', ( #84, #82 ) ) ;
#108 = EDGE_LOOP ( 'NONE', ( #94, #98, #97, #99 ) ) ;
#109 = EDGE_LOOP ( 'NONE', ( #100, #91, #95, #86 ) ) ;
#110 = EDGE_LOOP ( 'NONE', ( #89, #96 ) ) ;
#111 =( GEOMETRIC_REPRESENTATION_CONTEXT ( 3 ) GLOBAL_UNCERTAINTY_ASSIGNED_CONTEXT ( ( #129 ) ) GLOBAL_UNIT_ASSIGNED_CONTEXT ( ( #165, #163, #162 ) ) REPRESENTATION_CONTEXT ( 'NONE', 'WORKASPACE' ) );
#112 =( GEOMETRIC_REPRESENTATION_CONTEXT ( 3 ) GLOBAL_UNCERTAINTY_ASSIGNED_CONTEXT ( ( #128 ) ) GLOBAL_UNIT_ASSIGNED_CONTEXT ( ( #150, #145, #159 ) ) REPRESENTATION_CONTEXT ( 'NONE', 'WORKASPACE' ) );
#113 = PRODUCT ( 'H20933-AXIAL', 'H20933-AXIAL', '', ( #147 ) ) ;
#114 = DIMENSIONAL_EXPONENTS ( 1.000000000000000000, 0.0000000000000000000, 0.0000000000000000000, 0.0000000000000000000, 0.0000000000000000000, 0.0000000000000000000, 0.0000000000000000000 ) ;
#115 = DIMENSIONAL_EXPONENTS ( 1.000000000000000000, 0.0000000000000000000, 0.0000000000000000000, 0.0000000000000000000, 0.0000000000000000000, 0.0000000000000000000, 0.0000000000000000000 ) ;
#116 = DIMENSIONAL_EXPONENTS ( 1.000000000000000000, 0.0000000000000000000, 0.0000000000000000000, 0.0000000000000000000, 0.0000000000000000000, 0.0000000000000000000, 0.0000000000000000000 ) ;
#117 = PRODUCT_DEFINITION_SHAPE ( 'NONE', 'NONE',  #132 ) ;
#118 = MANIFOLD_SOLID_BREP ( 'Boss-Extrude1', #141 ) ;
#119 = PRODUCT_DEFINITION_CONTEXT ( 'detailed design', #177, 'design' ) ;
#120 = EDGE_CURVE ( 'NONE', #72, #73, #219, .T. ) ;
#121 = CIRCLE ( 'NONE', #140, 0.2650000000000000100 ) ;
#122 = EDGE_CURVE ( 'NONE', #72, #74, #48, .T. ) ;
#123 = EDGE_CURVE ( 'NONE', #76, #78, #45, .T. ) ;
#124 = EDGE_CURVE ( 'NONE', #78, #77, #218, .T. ) ;
#125 = EDGE_CURVE ( 'NONE', #76, #71, #220, .T. ) ;
#126 = EDGE_CURVE ( 'NONE', #71, #77, #36, .T. ) ;
#127 = ADVANCED_BREP_SHAPE_REPRESENTATION ( 'H20933-AXIAL', ( #118, #210 ), #111 ) ;
#128 = UNCERTAINTY_MEASURE_WITH_UNIT (LENGTH_MEASURE( 1.000000000000000100E-005 ), #150, 'distance_accuracy_value', 'NONE');
#129 = UNCERTAINTY_MEASURE_WITH_UNIT (LENGTH_MEASURE( 1.000000000000000100E-005 ), #165, 'distance_accuracy_value', 'NONE');
#130 = CIRCLE ( 'NONE', #186, 0.2650000000000000100 ) ;
#131 = COLOUR_RGB ( '',0.5686274509803921400, 0.5686274509803921400, 0.5882352941176470800 ) ;
#132 = PRODUCT_DEFINITION ( 'UNKNOWN', '', #211, #119 ) ;
#133 = PRODUCT_RELATED_PRODUCT_CATEGORY ( 'part', '', ( #113 ) ) ;
#134 = UNCERTAINTY_MEASURE_WITH_UNIT (LENGTH_MEASURE( 1.000000000000000100E-005 ), #61, 'distance_accuracy_value', 'NONE');
#135 = PRESENTATION_LAYER_ASSIGNMENT (  '', '', ( #136 ) ) ;
#136 = STYLED_ITEM ( 'NONE', ( #59 ), #118 ) ;
#137 = AXIS2_PLACEMENT_3D ( 'NONE', #28, #27, #26 ) ;
#138 = MECHANICAL_DESIGN_GEOMETRIC_PRESENTATION_REPRESENTATION (  '', ( #136 ), #143 ) ;
#139 = AXIS2_PLACEMENT_3D ( 'NONE', #52, #51, #50 ) ;
#140 = AXIS2_PLACEMENT_3D ( 'NONE', #25, #24, #23 ) ;
#141 = CLOSED_SHELL ( 'NONE', ( #215, #214, #216, #213, #212, #174 ) ) ;
#142 = LENGTH_MEASURE_WITH_UNIT ( LENGTH_MEASURE( 0.02539999999999999900 ), #63 );
#143 =( GEOMETRIC_REPRESENTATION_CONTEXT ( 3 ) GLOBAL_UNCERTAINTY_ASSIGNED_CONTEXT ( ( #134 ) ) GLOBAL_UNIT_ASSIGNED_CONTEXT ( ( #61, #54, #53 ) ) REPRESENTATION_CONTEXT ( 'NONE', 'WORKASPACE' ) );
#144 = DIRECTION ( 'NONE',  ( 0.0000000000000000000, 0.0000000000000000000, 1.000000000000000000 ) ) ;
#145 =( NAMED_UNIT ( * ) PLANE_ANGLE_UNIT ( ) SI_UNIT ( $, .RADIAN. ) );
#146 = APPLICATION_PROTOCOL_DEFINITION ( 'draft international standard', 'automotive_design', 1998, #177 ) ;
#147 = PRODUCT_CONTEXT ( 'NONE', #176, 'mechanical' ) ;
#148 = APPLICATION_PROTOCOL_DEFINITION ( 'draft international standard', 'automotive_design', 1998, #176 ) ;
#149 = CARTESIAN_POINT ( 'NONE',  ( 0.0000000000000000000, 0.0000000000000000000, 0.0000000000000000000 ) ) ;
#150 =( CONVERSION_BASED_UNIT ( 'INCH', #209 ) LENGTH_UNIT ( ) NAMED_UNIT ( #116 ) );
#151 = SURFACE_STYLE_USAGE ( .BOTH. , #152 ) ;
#152 = SURFACE_SIDE_STYLE ('',( #153 ) ) ;
#153 = SURFACE_STYLE_FILL_AREA ( #154 ) ;
#154 = FILL_AREA_STYLE ('',( #156 ) ) ;
#155 =( LENGTH_UNIT ( ) NAMED_UNIT ( * ) SI_UNIT ( $, .METRE. ) );
#156 = FILL_AREA_STYLE_COLOUR ( '', #131 ) ;
#157 = PRESENTATION_STYLE_ASSIGNMENT (( #151 ) ) ;
#158 = DIRECTION ( 'NONE',  ( 0.0000000000000000000, 0.0000000000000000000, 1.000000000000000000 ) ) ;
#159 =( NAMED_UNIT ( * ) SI_UNIT ( $, .STERADIAN. ) SOLID_ANGLE_UNIT ( ) );
#160 = SHAPE_DEFINITION_REPRESENTATION ( #117, #127 ) ;
#161 = DIRECTION ( 'NONE',  ( 1.000000000000000000, 0.0000000000000000000, 0.0000000000000000000 ) ) ;
#162 =( NAMED_UNIT ( * ) SI_UNIT ( $, .STERADIAN. ) SOLID_ANGLE_UNIT ( ) );
#163 =( NAMED_UNIT ( * ) PLANE_ANGLE_UNIT ( ) SI_UNIT ( $, .RADIAN. ) );
#164 = CARTESIAN_POINT ( 'NONE',  ( 0.0000000000000000000, 0.0000000000000000000, 0.07900000000000000100 ) ) ;
#165 =( CONVERSION_BASED_UNIT ( 'INCH', #204 ) LENGTH_UNIT ( ) NAMED_UNIT ( #114 ) );
#166 =( LENGTH_UNIT ( ) NAMED_UNIT ( * ) SI_UNIT ( $, .METRE. ) );
#167 = DIRECTION ( 'NONE',  ( 1.000000000000000000, 0.0000000000000000000, -0.0000000000000000000 ) ) ;
#168 = PLANE ( 'NONE',  #205 ) ;
#169 = EDGE_CURVE ( 'NONE', #73, #75, #33, .T. ) ;
#170 = EDGE_CURVE ( 'NONE', #77, #78, #222, .T. ) ;
#171 = EDGE_CURVE ( 'NONE', #74, #75, #223, .T. ) ;
#172 = EDGE_CURVE ( 'NONE', #73, #72, #121, .T. ) ;
#173 = EDGE_CURVE ( 'NONE', #71, #76, #217, .T. ) ;
#174 = ADVANCED_FACE ( 'NONE', ( #187 ), #190, .F. ) ;
#175 = EDGE_CURVE ( 'NONE', #75, #74, #130, .T. ) ;
#176 = APPLICATION_CONTEXT ( 'automotive_design' ) ;
#177 = APPLICATION_CONTEXT ( 'automotive_design' ) ;
#178 = AXIS2_PLACEMENT_3D ( 'NONE', #49, #42, #41 ) ;
#179 = VECTOR ( 'NONE', #46, 39.37007874015748100 ) ;
#180 = VECTOR ( 'NONE', #43, 39.37007874015748100 ) ;
#181 = AXIS2_PLACEMENT_3D ( 'NONE', #40, #39, #38 ) ;
#182 = AXIS2_PLACEMENT_3D ( 'NONE', #22, #21, #20 ) ;
#183 = VECTOR ( 'NONE', #34, 39.37007874015748100 ) ;
#184 = AXIS2_PLACEMENT_3D ( 'NONE', #37, #30, #29 ) ;
#185 = VECTOR ( 'NONE', #31, 39.37007874015748100 ) ;
#186 = AXIS2_PLACEMENT_3D ( 'NONE', #16, #15, #14 ) ;
#187 = FACE_OUTER_BOUND ( 'NONE', #103, .T. ) ;
#188 = AXIS2_PLACEMENT_3D ( 'NONE', #19, #18, #17 ) ;
#189 = FACE_OUTER_BOUND ( 'NONE', #108, .T. ) ;
#190 = CYLINDRICAL_SURFACE ( 'NONE', #188, 0.1860000000000000000 ) ;
#191 = FACE_OUTER_BOUND ( 'NONE', #106, .T. ) ;
#192 = AXIS2_PLACEMENT_3D ( 'NONE', #13, #12, #11 ) ;
#193 = FACE_OUTER_BOUND ( 'NONE', #104, .T. ) ;
#194 = CYLINDRICAL_SURFACE ( 'NONE', #192, 0.2650000000000000100 ) ;
#195 = AXIS2_PLACEMENT_3D ( 'NONE', #6, #5, #4 ) ;
#196 = FACE_BOUND ( 'NONE', #105, .T. ) ;
#197 = FACE_OUTER_BOUND ( 'NONE', #109, .T. ) ;
#198 = AXIS2_PLACEMENT_3D ( 'NONE', #9, #8, #7 ) ;
#199 = CYLINDRICAL_SURFACE ( 'NONE', #195, 0.2650000000000000100 ) ;
#200 = FACE_OUTER_BOUND ( 'NONE', #107, .T. ) ;
#201 = AXIS2_PLACEMENT_3D ( 'NONE', #3, #2, #1 ) ;
#202 = CYLINDRICAL_SURFACE ( 'NONE', #201, 0.1860000000000000000 ) ;
#203 = FACE_BOUND ( 'NONE', #110, .T. ) ;
#204 = LENGTH_MEASURE_WITH_UNIT ( LENGTH_MEASURE( 0.02539999999999999900 ), #166 );
#205 = AXIS2_PLACEMENT_3D ( 'NONE', #164, #144, #167 ) ;
#206 = STYLED_ITEM ( 'NONE', ( #157 ), #127 ) ;
#207 = PRESENTATION_LAYER_ASSIGNMENT (  '', '', ( #206 ) ) ;
#208 = MECHANICAL_DESIGN_GEOMETRIC_PRESENTATION_REPRESENTATION (  '', ( #206 ), #112 ) ;
#209 = LENGTH_MEASURE_WITH_UNIT ( LENGTH_MEASURE( 0.02539999999999999900 ), #155 );
#210 = AXIS2_PLACEMENT_3D ( 'NONE', #149, #158, #161 ) ;
#211 = PRODUCT_DEFINITION_FORMATION_WITH_SPECIFIED_SOURCE ( 'ANY', '', #113, .NOT_KNOWN. ) ;
#212 = ADVANCED_FACE ( 'NONE', ( #191 ), #194, .T. ) ;
#213 = ADVANCED_FACE ( 'NONE', ( #193, #196 ), #10, .F. ) ;
#214 = ADVANCED_FACE ( 'NONE', ( #197 ), #199, .T. ) ;
#215 = ADVANCED_FACE ( 'NONE', ( #189 ), #202, .F. ) ;
#216 = ADVANCED_FACE ( 'NONE', ( #200, #203 ), #168, .T. ) ;
#217 = CIRCLE ( 'NONE', #182, 0.1860000000000000000 ) ;
#218 = CIRCLE ( 'NONE', #178, 0.1860000000000000000 ) ;
#219 = CIRCLE ( 'NONE', #139, 0.2650000000000000100 ) ;
#220 = CIRCLE ( 'NONE', #181, 0.1860000000000000000 ) ;
#221 = COLOUR_RGB ( '',0.5686274509803921400, 0.5686274509803921400, 0.5882352941176470800 ) ;
#222 = CIRCLE ( 'NONE', #184, 0.1860000000000000000 ) ;
#223 = CIRCLE ( 'NONE', #137, 0.2650000000000000100 ) ;
ENDSEC;
END-ISO-10303-21;
