ISO-10303-21;
HEADER;
FILE_DESCRIPTION (( 'STEP AP214' ),
    '1' );
FILE_NAME ('H250F.step',
    '2012-04-20T20:59:11',
    ( '' ),
    ( '' ),
    'SwSTEP 2.0',
    'SolidWorks 2012',
    '' );
FILE_SCHEMA (( 'AUTOMOTIVE_DESIGN' ));
ENDSEC;

DATA;
#1 = DIRECTION ( 'NONE',  ( 0.0000000000000000000, 0.0000000000000000000, 1.000000000000000000 ) ) ;
#2 = CARTESIAN_POINT ( 'NONE',  ( 0.0000000000000000000, 0.0000000000000000000, 0.2500000000000000000 ) ) ;
#3 = PLANE ( 'NONE',  #131 ) ;
#4 = DIRECTION ( 'NONE',  ( 1.000000000000000000, 0.0000000000000000000, 0.0000000000000000000 ) ) ;
#5 = DIRECTION ( 'NONE',  ( 0.0000000000000000000, 0.0000000000000000000, 1.000000000000000000 ) ) ;
#6 = DIRECTION ( 'NONE',  ( -0.0000000000000000000, -0.0000000000000000000, -1.000000000000000000 ) ) ;
#7 = CARTESIAN_POINT ( 'NONE',  ( 0.3749999999999999400, 4.592425496802573600E-017, 0.2500000000000000000 ) ) ;
#8 = LINE ( 'NONE', #7, #136 ) ;
#9 = DIRECTION ( 'NONE',  ( -0.0000000000000000000, -0.0000000000000000000, -1.000000000000000000 ) ) ;
#10 = CARTESIAN_POINT ( 'NONE',  ( -0.1300000000000000000, 0.0000000000000000000, 0.2500000000000000000 ) ) ;
#11 = LINE ( 'NONE', #10, #134 ) ;
#12 = CARTESIAN_POINT ( 'NONE',  ( 0.0000000000000000000, 0.0000000000000000000, 0.2500000000000000000 ) ) ;
#13 = DIRECTION ( 'NONE',  ( 1.000000000000000000, 0.0000000000000000000, 0.0000000000000000000 ) ) ;
#14 = DIRECTION ( 'NONE',  ( 0.0000000000000000000, 0.0000000000000000000, 1.000000000000000000 ) ) ;
#15 = DIRECTION ( 'NONE',  ( -0.0000000000000000000, -0.0000000000000000000, -1.000000000000000000 ) ) ;
#16 = CARTESIAN_POINT ( 'NONE',  ( 0.1300000000000000000, 1.592040838891559300E-017, 0.2500000000000000000 ) ) ;
#17 = LINE ( 'NONE', #16, #132 ) ;
#18 = DIRECTION ( 'NONE',  ( -0.0000000000000000000, -0.0000000000000000000, -1.000000000000000000 ) ) ;
#19 = CARTESIAN_POINT ( 'NONE',  ( -0.3749999999999999400, 0.0000000000000000000, 0.2500000000000000000 ) ) ;
#20 = LINE ( 'NONE', #19, #130 ) ;
#21 = CARTESIAN_POINT ( 'NONE',  ( 0.0000000000000000000, 0.0000000000000000000, 0.2500000000000000000 ) ) ;
#22 = DIRECTION ( 'NONE',  ( 1.000000000000000000, 0.0000000000000000000, 0.0000000000000000000 ) ) ;
#23 = DIRECTION ( 'NONE',  ( 0.0000000000000000000, 0.0000000000000000000, 1.000000000000000000 ) ) ;
#24 = CARTESIAN_POINT ( 'NONE',  ( 0.0000000000000000000, 0.0000000000000000000, 0.0000000000000000000 ) ) ;
#25 = DIRECTION ( 'NONE',  ( 1.000000000000000000, 0.0000000000000000000, 0.0000000000000000000 ) ) ;
#26 = DIRECTION ( 'NONE',  ( 0.0000000000000000000, 0.0000000000000000000, 1.000000000000000000 ) ) ;
#27 = CARTESIAN_POINT ( 'NONE',  ( 0.0000000000000000000, 0.0000000000000000000, 0.2500000000000000000 ) ) ;
#28 = DIRECTION ( 'NONE',  ( 1.000000000000000000, 0.0000000000000000000, -0.0000000000000000000 ) ) ;
#29 = DIRECTION ( 'NONE',  ( 0.0000000000000000000, 0.0000000000000000000, 1.000000000000000000 ) ) ;
#30 = CARTESIAN_POINT ( 'NONE',  ( 0.0000000000000000000, 0.0000000000000000000, 0.0000000000000000000 ) ) ;
#31 = PLANE ( 'NONE',  #128 ) ;
#32 = DIRECTION ( 'NONE',  ( -1.000000000000000000, 0.0000000000000000000, 0.0000000000000000000 ) ) ;
#33 = DIRECTION ( 'NONE',  ( -0.0000000000000000000, -0.0000000000000000000, -1.000000000000000000 ) ) ;
#34 = CARTESIAN_POINT ( 'NONE',  ( 0.0000000000000000000, 0.0000000000000000000, 0.2500000000000000000 ) ) ;
#35 = DIRECTION ( 'NONE',  ( -1.000000000000000000, 0.0000000000000000000, 0.0000000000000000000 ) ) ;
#36 = DIRECTION ( 'NONE',  ( -0.0000000000000000000, -0.0000000000000000000, -1.000000000000000000 ) ) ;
#37 = CARTESIAN_POINT ( 'NONE',  ( 0.0000000000000000000, 0.0000000000000000000, 0.2500000000000000000 ) ) ;
#38 = DIRECTION ( 'NONE',  ( 1.000000000000000000, 0.0000000000000000000, 0.0000000000000000000 ) ) ;
#39 = DIRECTION ( 'NONE',  ( 0.0000000000000000000, 0.0000000000000000000, 1.000000000000000000 ) ) ;
#40 = CARTESIAN_POINT ( 'NONE',  ( 0.0000000000000000000, 0.0000000000000000000, 0.0000000000000000000 ) ) ;
#41 = DIRECTION ( 'NONE',  ( 1.000000000000000000, 0.0000000000000000000, 0.0000000000000000000 ) ) ;
#42 = DIRECTION ( 'NONE',  ( 0.0000000000000000000, 0.0000000000000000000, 1.000000000000000000 ) ) ;
#43 = CARTESIAN_POINT ( 'NONE',  ( 0.0000000000000000000, 0.0000000000000000000, 0.0000000000000000000 ) ) ;
#44 = DIRECTION ( 'NONE',  ( 1.000000000000000000, 0.0000000000000000000, 0.0000000000000000000 ) ) ;
#45 = DIRECTION ( 'NONE',  ( 0.0000000000000000000, 0.0000000000000000000, 1.000000000000000000 ) ) ;
#46 = CARTESIAN_POINT ( 'NONE',  ( 0.0000000000000000000, 0.0000000000000000000, 0.2500000000000000000 ) ) ;
#47 = DIRECTION ( 'NONE',  ( 1.000000000000000000, 0.0000000000000000000, 0.0000000000000000000 ) ) ;
#48 = DIRECTION ( 'NONE',  ( 0.0000000000000000000, 0.0000000000000000000, 1.000000000000000000 ) ) ;
#49 = CARTESIAN_POINT ( 'NONE',  ( 0.0000000000000000000, 0.0000000000000000000, 0.0000000000000000000 ) ) ;
#50 =( NAMED_UNIT ( * ) SI_UNIT ( $, .STERADIAN. ) SOLID_ANGLE_UNIT ( ) );
#51 = EDGE_LOOP ( 'NONE', ( #88, #80 ) ) ;
#52 =( NAMED_UNIT ( * ) PLANE_ANGLE_UNIT ( ) SI_UNIT ( $, .RADIAN. ) );
#53 =( CONVERSION_BASED_UNIT ( 'INCH', #154 ) LENGTH_UNIT ( ) NAMED_UNIT ( #108 ) );
#54 =( LENGTH_UNIT ( ) NAMED_UNIT ( * ) SI_UNIT ( $, .METRE. ) );
#55 = SURFACE_STYLE_USAGE ( .BOTH. , #57 ) ;
#56 = PRESENTATION_STYLE_ASSIGNMENT (( #55 ) ) ;
#57 = SURFACE_SIDE_STYLE ('',( #58 ) ) ;
#58 = SURFACE_STYLE_FILL_AREA ( #59 ) ;
#59 = FILL_AREA_STYLE ('',( #60 ) ) ;
#60 = FILL_AREA_STYLE_COLOUR ( '', #204 ) ;
#61 = CARTESIAN_POINT ( 'NONE',  ( -0.1300000000000000000, 0.0000000000000000000, 0.0000000000000000000 ) ) ;
#62 = CARTESIAN_POINT ( 'NONE',  ( -0.3749999999999999400, 0.0000000000000000000, 0.2500000000000000000 ) ) ;
#63 = CARTESIAN_POINT ( 'NONE',  ( 0.3749999999999999400, 4.592425496802573600E-017, 0.0000000000000000000 ) ) ;
#64 = CARTESIAN_POINT ( 'NONE',  ( -0.3749999999999999400, 0.0000000000000000000, 0.0000000000000000000 ) ) ;
#65 = CARTESIAN_POINT ( 'NONE',  ( 0.3749999999999999400, 4.592425496802573600E-017, 0.2500000000000000000 ) ) ;
#66 = CARTESIAN_POINT ( 'NONE',  ( 0.1300000000000000000, 1.592040838891559300E-017, 0.0000000000000000000 ) ) ;
#67 = CARTESIAN_POINT ( 'NONE',  ( -0.1300000000000000000, 0.0000000000000000000, 0.2500000000000000000 ) ) ;
#68 = CARTESIAN_POINT ( 'NONE',  ( 0.1300000000000000000, 1.592040838891559300E-017, 0.2500000000000000000 ) ) ;
#69 = VERTEX_POINT ( 'NONE', #68 ) ;
#70 = VERTEX_POINT ( 'NONE', #67 ) ;
#71 = VERTEX_POINT ( 'NONE', #66 ) ;
#72 = VERTEX_POINT ( 'NONE', #65 ) ;
#73 = VERTEX_POINT ( 'NONE', #64 ) ;
#74 = VERTEX_POINT ( 'NONE', #63 ) ;
#75 = VERTEX_POINT ( 'NONE', #62 ) ;
#76 = VERTEX_POINT ( 'NONE', #61 ) ;
#77 = ORIENTED_EDGE ( 'NONE', *, *, #199, .F. ) ;
#78 = ORIENTED_EDGE ( 'NONE', *, *, #216, .F. ) ;
#79 = ORIENTED_EDGE ( 'NONE', *, *, #119, .F. ) ;
#80 = ORIENTED_EDGE ( 'NONE', *, *, #198, .T. ) ;
#81 = ORIENTED_EDGE ( 'NONE', *, *, #199, .T. ) ;
#82 = ORIENTED_EDGE ( 'NONE', *, *, #214, .F. ) ;
#83 = ORIENTED_EDGE ( 'NONE', *, *, #212, .T. ) ;
#84 = ORIENTED_EDGE ( 'NONE', *, *, #198, .F. ) ;
#85 = ORIENTED_EDGE ( 'NONE', *, *, #213, .F. ) ;
#86 = ORIENTED_EDGE ( 'NONE', *, *, #197, .T. ) ;
#87 = ORIENTED_EDGE ( 'NONE', *, *, #215, .T. ) ;
#88 = ORIENTED_EDGE ( 'NONE', *, *, #211, .T. ) ;
#89 = ORIENTED_EDGE ( 'NONE', *, *, #197, .F. ) ;
#90 = ORIENTED_EDGE ( 'NONE', *, *, #214, .T. ) ;
#91 = ORIENTED_EDGE ( 'NONE', *, *, #217, .T. ) ;
#92 = ORIENTED_EDGE ( 'NONE', *, *, #217, .F. ) ;
#93 = ORIENTED_EDGE ( 'NONE', *, *, #209, .F. ) ;
#94 = ORIENTED_EDGE ( 'NONE', *, *, #213, .T. ) ;
#95 = ORIENTED_EDGE ( 'NONE', *, *, #215, .F. ) ;
#96 = ORIENTED_EDGE ( 'NONE', *, *, #209, .T. ) ;
#97 = ORIENTED_EDGE ( 'NONE', *, *, #211, .F. ) ;
#98 = ORIENTED_EDGE ( 'NONE', *, *, #212, .F. ) ;
#99 = ORIENTED_EDGE ( 'NONE', *, *, #216, .T. ) ;
#100 = ORIENTED_EDGE ( 'NONE', *, *, #119, .T. ) ;
#101 = EDGE_LOOP ( 'NONE', ( #78, #82, #83, #81 ) ) ;
#102 = EDGE_LOOP ( 'NONE', ( #85, #86, #87, #84 ) ) ;
#103 = EDGE_LOOP ( 'NONE', ( #90, #91 ) ) ;
#104 = EDGE_LOOP ( 'NONE', ( #96, #94, #97, #95 ) ) ;
#105 = EDGE_LOOP ( 'NONE', ( #92, #99, #100, #98 ) ) ;
#106 = EDGE_LOOP ( 'NONE', ( #93, #89 ) ) ;
#107 = EDGE_LOOP ( 'NONE', ( #77, #79 ) ) ;
#108 = DIMENSIONAL_EXPONENTS ( 1.000000000000000000, 0.0000000000000000000, 0.0000000000000000000, 0.0000000000000000000, 0.0000000000000000000, 0.0000000000000000000, 0.0000000000000000000 ) ;
#109 = DIMENSIONAL_EXPONENTS ( 1.000000000000000000, 0.0000000000000000000, 0.0000000000000000000, 0.0000000000000000000, 0.0000000000000000000, 0.0000000000000000000, 0.0000000000000000000 ) ;
#110 = DIMENSIONAL_EXPONENTS ( 1.000000000000000000, 0.0000000000000000000, 0.0000000000000000000, 0.0000000000000000000, 0.0000000000000000000, 0.0000000000000000000, 0.0000000000000000000 ) ;
#111 = PRODUCT ( 'H250F', 'H250F', '', ( #178 ) ) ;
#112 = MANIFOLD_SOLID_BREP ( 'Boss-Extrude1', #153 ) ;
#113 = PRODUCT_DEFINITION_SHAPE ( 'NONE', 'NONE',  #193 ) ;
#114 = PRODUCT_DEFINITION_CONTEXT ( 'detailed design', #196, 'design' ) ;
#115 = ADVANCED_BREP_SHAPE_REPRESENTATION ( 'H250F', ( #112, #148 ), #150 ) ;
#116 = UNCERTAINTY_MEASURE_WITH_UNIT (LENGTH_MEASURE( 1.000000000000000100E-005 ), #184, 'distance_accuracy_value', 'NONE');
#117 = UNCERTAINTY_MEASURE_WITH_UNIT (LENGTH_MEASURE( 1.000000000000000100E-005 ), #170, 'distance_accuracy_value', 'NONE');
#118 = UNCERTAINTY_MEASURE_WITH_UNIT (LENGTH_MEASURE( 1.000000000000000100E-005 ), #53, 'distance_accuracy_value', 'NONE');
#119 = EDGE_CURVE ( 'NONE', #74, #73, #223, .T. ) ;
#120 = AXIS2_PLACEMENT_3D ( 'NONE', #21, #14, #13 ) ;
#121 = FACE_OUTER_BOUND ( 'NONE', #101, .T. ) ;
#122 = FACE_OUTER_BOUND ( 'NONE', #107, .T. ) ;
#123 = AXIS2_PLACEMENT_3D ( 'NONE', #34, #33, #32 ) ;
#124 = CYLINDRICAL_SURFACE ( 'NONE', #123, 0.3749999999999999400 ) ;
#125 = FACE_BOUND ( 'NONE', #51, .T. ) ;
#126 = FACE_OUTER_BOUND ( 'NONE', #103, .T. ) ;
#127 = AXIS2_PLACEMENT_3D ( 'NONE', #27, #26, #25 ) ;
#128 = AXIS2_PLACEMENT_3D ( 'NONE', #30, #29, #28 ) ;
#129 = AXIS2_PLACEMENT_3D ( 'NONE', #24, #23, #22 ) ;
#130 = VECTOR ( 'NONE', #18, 39.37007874015748100 ) ;
#131 = AXIS2_PLACEMENT_3D ( 'NONE', #2, #1, #192 ) ;
#132 = VECTOR ( 'NONE', #15, 39.37007874015748100 ) ;
#133 = AXIS2_PLACEMENT_3D ( 'NONE', #12, #5, #4 ) ;
#134 = VECTOR ( 'NONE', #9, 39.37007874015748100 ) ;
#135 = FACE_BOUND ( 'NONE', #106, .T. ) ;
#136 = VECTOR ( 'NONE', #6, 39.37007874015748100 ) ;
#137 = AXIS2_PLACEMENT_3D ( 'NONE', #191, #190, #189 ) ;
#138 = FACE_OUTER_BOUND ( 'NONE', #105, .T. ) ;
#139 = FACE_OUTER_BOUND ( 'NONE', #104, .T. ) ;
#140 = CYLINDRICAL_SURFACE ( 'NONE', #137, 0.3749999999999999400 ) ;
#141 = AXIS2_PLACEMENT_3D ( 'NONE', #185, #187, #188 ) ;
#142 = CYLINDRICAL_SURFACE ( 'NONE', #141, 0.1300000000000000000 ) ;
#143 = LENGTH_MEASURE_WITH_UNIT ( LENGTH_MEASURE( 0.02539999999999999900 ), #183 );
#144 = STYLED_ITEM ( 'NONE', ( #169 ), #115 ) ;
#145 = PRESENTATION_LAYER_ASSIGNMENT (  '', '', ( #144 ) ) ;
#146 = MECHANICAL_DESIGN_GEOMETRIC_PRESENTATION_REPRESENTATION (  '', ( #144 ), #152 ) ;
#147 = LENGTH_MEASURE_WITH_UNIT ( LENGTH_MEASURE( 0.02539999999999999900 ), #168 );
#148 = AXIS2_PLACEMENT_3D ( 'NONE', #179, #177, #176 ) ;
#149 = PRODUCT_DEFINITION_FORMATION_WITH_SPECIFIED_SOURCE ( 'ANY', '', #111, .NOT_KNOWN. ) ;
#150 =( GEOMETRIC_REPRESENTATION_CONTEXT ( 3 ) GLOBAL_UNCERTAINTY_ASSIGNED_CONTEXT ( ( #116 ) ) GLOBAL_UNIT_ASSIGNED_CONTEXT ( ( #184, #186, #182 ) ) REPRESENTATION_CONTEXT ( 'NONE', 'WORKASPACE' ) );
#151 =( GEOMETRIC_REPRESENTATION_CONTEXT ( 3 ) GLOBAL_UNCERTAINTY_ASSIGNED_CONTEXT ( ( #118 ) ) GLOBAL_UNIT_ASSIGNED_CONTEXT ( ( #53, #52, #50 ) ) REPRESENTATION_CONTEXT ( 'NONE', 'WORKASPACE' ) );
#152 =( GEOMETRIC_REPRESENTATION_CONTEXT ( 3 ) GLOBAL_UNCERTAINTY_ASSIGNED_CONTEXT ( ( #117 ) ) GLOBAL_UNIT_ASSIGNED_CONTEXT ( ( #170, #174, #181 ) ) REPRESENTATION_CONTEXT ( 'NONE', 'WORKASPACE' ) );
#153 = CLOSED_SHELL ( 'NONE', ( #220, #219, #218, #202, #201, #200 ) ) ;
#154 = LENGTH_MEASURE_WITH_UNIT ( LENGTH_MEASURE( 0.02539999999999999900 ), #54 );
#155 = CYLINDRICAL_SURFACE ( 'NONE', #164, 0.1300000000000000000 ) ;
#156 = AXIS2_PLACEMENT_3D ( 'NONE', #43, #42, #41 ) ;
#157 = MECHANICAL_DESIGN_GEOMETRIC_PRESENTATION_REPRESENTATION (  '', ( #159 ), #151 ) ;
#158 = PRESENTATION_LAYER_ASSIGNMENT (  '', '', ( #159 ) ) ;
#159 = STYLED_ITEM ( 'NONE', ( #56 ), #112 ) ;
#160 = AXIS2_PLACEMENT_3D ( 'NONE', #40, #39, #38 ) ;
#161 = AXIS2_PLACEMENT_3D ( 'NONE', #46, #45, #44 ) ;
#162 = FACE_OUTER_BOUND ( 'NONE', #102, .T. ) ;
#163 = AXIS2_PLACEMENT_3D ( 'NONE', #49, #48, #47 ) ;
#164 = AXIS2_PLACEMENT_3D ( 'NONE', #37, #36, #35 ) ;
#165 = APPLICATION_PROTOCOL_DEFINITION ( 'draft international standard', 'automotive_design', 1998, #196 ) ;
#166 = SURFACE_SIDE_STYLE ('',( #171 ) ) ;
#167 = SURFACE_STYLE_USAGE ( .BOTH. , #166 ) ;
#168 =( LENGTH_UNIT ( ) NAMED_UNIT ( * ) SI_UNIT ( $, .METRE. ) );
#169 = PRESENTATION_STYLE_ASSIGNMENT (( #167 ) ) ;
#170 =( CONVERSION_BASED_UNIT ( 'INCH', #147 ) LENGTH_UNIT ( ) NAMED_UNIT ( #110 ) );
#171 = SURFACE_STYLE_FILL_AREA ( #172 ) ;
#172 = FILL_AREA_STYLE ('',( #173 ) ) ;
#173 = FILL_AREA_STYLE_COLOUR ( '', #210 ) ;
#174 =( NAMED_UNIT ( * ) PLANE_ANGLE_UNIT ( ) SI_UNIT ( $, .RADIAN. ) );
#175 = APPLICATION_PROTOCOL_DEFINITION ( 'draft international standard', 'automotive_design', 1998, #195 ) ;
#176 = DIRECTION ( 'NONE',  ( 1.000000000000000000, 0.0000000000000000000, 0.0000000000000000000 ) ) ;
#177 = DIRECTION ( 'NONE',  ( 0.0000000000000000000, 0.0000000000000000000, 1.000000000000000000 ) ) ;
#178 = PRODUCT_CONTEXT ( 'NONE', #195, 'mechanical' ) ;
#179 = CARTESIAN_POINT ( 'NONE',  ( 0.0000000000000000000, 0.0000000000000000000, 0.0000000000000000000 ) ) ;
#180 = SHAPE_DEFINITION_REPRESENTATION ( #113, #115 ) ;
#181 =( NAMED_UNIT ( * ) SI_UNIT ( $, .STERADIAN. ) SOLID_ANGLE_UNIT ( ) );
#182 =( NAMED_UNIT ( * ) SI_UNIT ( $, .STERADIAN. ) SOLID_ANGLE_UNIT ( ) );
#183 =( LENGTH_UNIT ( ) NAMED_UNIT ( * ) SI_UNIT ( $, .METRE. ) );
#184 =( CONVERSION_BASED_UNIT ( 'INCH', #143 ) LENGTH_UNIT ( ) NAMED_UNIT ( #109 ) );
#185 = CARTESIAN_POINT ( 'NONE',  ( 0.0000000000000000000, 0.0000000000000000000, 0.2500000000000000000 ) ) ;
#186 =( NAMED_UNIT ( * ) PLANE_ANGLE_UNIT ( ) SI_UNIT ( $, .RADIAN. ) );
#187 = DIRECTION ( 'NONE',  ( -0.0000000000000000000, -0.0000000000000000000, -1.000000000000000000 ) ) ;
#188 = DIRECTION ( 'NONE',  ( -1.000000000000000000, 0.0000000000000000000, 0.0000000000000000000 ) ) ;
#189 = DIRECTION ( 'NONE',  ( -1.000000000000000000, 0.0000000000000000000, 0.0000000000000000000 ) ) ;
#190 = DIRECTION ( 'NONE',  ( -0.0000000000000000000, -0.0000000000000000000, -1.000000000000000000 ) ) ;
#191 = CARTESIAN_POINT ( 'NONE',  ( 0.0000000000000000000, 0.0000000000000000000, 0.2500000000000000000 ) ) ;
#192 = DIRECTION ( 'NONE',  ( 1.000000000000000000, 0.0000000000000000000, -0.0000000000000000000 ) ) ;
#193 = PRODUCT_DEFINITION ( 'UNKNOWN', '', #149, #114 ) ;
#194 = PRODUCT_RELATED_PRODUCT_CATEGORY ( 'part', '', ( #111 ) ) ;
#195 = APPLICATION_CONTEXT ( 'automotive_design' ) ;
#196 = APPLICATION_CONTEXT ( 'automotive_design' ) ;
#197 = EDGE_CURVE ( 'NONE', #69, #70, #222, .T. ) ;
#198 = EDGE_CURVE ( 'NONE', #71, #76, #221, .T. ) ;
#199 = EDGE_CURVE ( 'NONE', #73, #74, #203, .T. ) ;
#200 = ADVANCED_FACE ( 'NONE', ( #162 ), #155, .F. ) ;
#201 = ADVANCED_FACE ( 'NONE', ( #121 ), #124, .T. ) ;
#202 = ADVANCED_FACE ( 'NONE', ( #122, #125 ), #31, .F. ) ;
#203 = CIRCLE ( 'NONE', #160, 0.3749999999999999400 ) ;
#204 = COLOUR_RGB ( '',0.5686274509803921400, 0.5686274509803921400, 0.5882352941176470800 ) ;
#205 = CIRCLE ( 'NONE', #129, 0.1300000000000000000 ) ;
#206 = CIRCLE ( 'NONE', #127, 0.1300000000000000000 ) ;
#207 = CIRCLE ( 'NONE', #120, 0.3749999999999999400 ) ;
#208 = CIRCLE ( 'NONE', #133, 0.3749999999999999400 ) ;
#209 = EDGE_CURVE ( 'NONE', #70, #69, #206, .T. ) ;
#210 = COLOUR_RGB ( '',0.5686274509803921400, 0.5686274509803921400, 0.5882352941176470800 ) ;
#211 = EDGE_CURVE ( 'NONE', #76, #71, #205, .T. ) ;
#212 = EDGE_CURVE ( 'NONE', #75, #73, #20, .T. ) ;
#213 = EDGE_CURVE ( 'NONE', #69, #71, #17, .T. ) ;
#214 = EDGE_CURVE ( 'NONE', #75, #72, #207, .T. ) ;
#215 = EDGE_CURVE ( 'NONE', #70, #76, #11, .T. ) ;
#216 = EDGE_CURVE ( 'NONE', #72, #74, #8, .T. ) ;
#217 = EDGE_CURVE ( 'NONE', #72, #75, #208, .T. ) ;
#218 = ADVANCED_FACE ( 'NONE', ( #126, #135 ), #3, .T. ) ;
#219 = ADVANCED_FACE ( 'NONE', ( #138 ), #140, .T. ) ;
#220 = ADVANCED_FACE ( 'NONE', ( #139 ), #142, .F. ) ;
#221 = CIRCLE ( 'NONE', #156, 0.1300000000000000000 ) ;
#222 = CIRCLE ( 'NONE', #161, 0.1300000000000000000 ) ;
#223 = CIRCLE ( 'NONE', #163, 0.3749999999999999400 ) ;
ENDSEC;
END-ISO-10303-21;
