ISO-10303-21;
HEADER;
FILE_DESCRIPTION (( 'STEP AP214' ),
    '1' );
FILE_NAME ('H250H.step',
    '2012-04-20T20:59:16',
    ( '' ),
    ( '' ),
    'SwSTEP 2.0',
    'SolidWorks 2012',
    '' );
FILE_SCHEMA (( 'AUTOMOTIVE_DESIGN' ));
ENDSEC;

DATA;
#1 = PLANE ( 'NONE',  #151 ) ;
#2 = DIRECTION ( 'NONE',  ( 1.000000000000000000, 0.0000000000000000000, -0.0000000000000000000 ) ) ;
#3 = DIRECTION ( 'NONE',  ( 0.0000000000000000000, 0.0000000000000000000, 1.000000000000000000 ) ) ;
#4 = CARTESIAN_POINT ( 'NONE',  ( 0.0000000000000000000, 0.0000000000000000000, 0.0000000000000000000 ) ) ;
#5 = PLANE ( 'NONE',  #149 ) ;
#6 = DIRECTION ( 'NONE',  ( -1.000000000000000000, 0.0000000000000000000, 0.0000000000000000000 ) ) ;
#7 = DIRECTION ( 'NONE',  ( -0.0000000000000000000, -0.0000000000000000000, -1.000000000000000000 ) ) ;
#8 = CARTESIAN_POINT ( 'NONE',  ( 0.0000000000000000000, 0.0000000000000000000, 0.2500000000000000000 ) ) ;
#9 = DIRECTION ( 'NONE',  ( -1.000000000000000000, 0.0000000000000000000, 0.0000000000000000000 ) ) ;
#10 = DIRECTION ( 'NONE',  ( -0.0000000000000000000, -0.0000000000000000000, -1.000000000000000000 ) ) ;
#11 = CARTESIAN_POINT ( 'NONE',  ( 0.0000000000000000000, 0.0000000000000000000, 0.2500000000000000000 ) ) ;
#12 = DIRECTION ( 'NONE',  ( 1.000000000000000000, 0.0000000000000000000, 0.0000000000000000000 ) ) ;
#13 = DIRECTION ( 'NONE',  ( 0.0000000000000000000, 0.0000000000000000000, 1.000000000000000000 ) ) ;
#14 = CARTESIAN_POINT ( 'NONE',  ( 0.0000000000000000000, 0.0000000000000000000, 0.0000000000000000000 ) ) ;
#15 = DIRECTION ( 'NONE',  ( 1.000000000000000000, 0.0000000000000000000, 0.0000000000000000000 ) ) ;
#16 = DIRECTION ( 'NONE',  ( 0.0000000000000000000, 0.0000000000000000000, 1.000000000000000000 ) ) ;
#17 = CARTESIAN_POINT ( 'NONE',  ( 0.0000000000000000000, 0.0000000000000000000, 0.0000000000000000000 ) ) ;
#18 = DIRECTION ( 'NONE',  ( 1.000000000000000000, 0.0000000000000000000, 0.0000000000000000000 ) ) ;
#19 = DIRECTION ( 'NONE',  ( 0.0000000000000000000, 0.0000000000000000000, 1.000000000000000000 ) ) ;
#20 = DIRECTION ( 'NONE',  ( -0.0000000000000000000, -0.0000000000000000000, -1.000000000000000000 ) ) ;
#21 = CARTESIAN_POINT ( 'NONE',  ( 0.2550000000000000000, 3.122849337825751200E-017, 0.2500000000000000000 ) ) ;
#22 = LINE ( 'NONE', #21, #137 ) ;
#23 = CARTESIAN_POINT ( 'NONE',  ( 0.0000000000000000000, 0.0000000000000000000, 0.2500000000000000000 ) ) ;
#24 = DIRECTION ( 'NONE',  ( 1.000000000000000000, 0.0000000000000000000, 0.0000000000000000000 ) ) ;
#25 = DIRECTION ( 'NONE',  ( 0.0000000000000000000, 0.0000000000000000000, 1.000000000000000000 ) ) ;
#26 = EDGE_LOOP ( 'NONE', ( #86, #78 ) ) ;
#27 = DIRECTION ( 'NONE',  ( 0.0000000000000000000, 0.0000000000000000000, 1.000000000000000000 ) ) ;
#28 = DIRECTION ( 'NONE',  ( 1.000000000000000000, 0.0000000000000000000, 0.0000000000000000000 ) ) ;
#29 = CARTESIAN_POINT ( 'NONE',  ( 0.0000000000000000000, 0.0000000000000000000, 0.0000000000000000000 ) ) ;
#30 = DIRECTION ( 'NONE',  ( 0.0000000000000000000, 0.0000000000000000000, 1.000000000000000000 ) ) ;
#31 = DIRECTION ( 'NONE',  ( 1.000000000000000000, 0.0000000000000000000, 0.0000000000000000000 ) ) ;
#32 = CARTESIAN_POINT ( 'NONE',  ( 0.0000000000000000000, 0.0000000000000000000, 0.2500000000000000000 ) ) ;
#33 = LINE ( 'NONE', #35, #132 ) ;
#34 = DIRECTION ( 'NONE',  ( -0.0000000000000000000, -0.0000000000000000000, -1.000000000000000000 ) ) ;
#35 = CARTESIAN_POINT ( 'NONE',  ( 0.5000000000000000000, 6.123233995736766000E-017, 0.2500000000000000000 ) ) ;
#36 = DIRECTION ( 'NONE',  ( 0.0000000000000000000, 0.0000000000000000000, 1.000000000000000000 ) ) ;
#37 = DIRECTION ( 'NONE',  ( 1.000000000000000000, 0.0000000000000000000, 0.0000000000000000000 ) ) ;
#38 = CARTESIAN_POINT ( 'NONE',  ( 0.0000000000000000000, 0.0000000000000000000, 0.2500000000000000000 ) ) ;
#39 = DIRECTION ( 'NONE',  ( -0.0000000000000000000, -0.0000000000000000000, -1.000000000000000000 ) ) ;
#40 = CARTESIAN_POINT ( 'NONE',  ( -0.2550000000000000000, 0.0000000000000000000, 0.2500000000000000000 ) ) ;
#41 = LINE ( 'NONE', #40, #129 ) ;
#42 = CARTESIAN_POINT ( 'NONE',  ( 0.0000000000000000000, 0.0000000000000000000, 0.0000000000000000000 ) ) ;
#43 = DIRECTION ( 'NONE',  ( 1.000000000000000000, 0.0000000000000000000, 0.0000000000000000000 ) ) ;
#44 = DIRECTION ( 'NONE',  ( 0.0000000000000000000, 0.0000000000000000000, 1.000000000000000000 ) ) ;
#45 = CARTESIAN_POINT ( 'NONE',  ( 0.0000000000000000000, 0.0000000000000000000, 0.2500000000000000000 ) ) ;
#46 = DIRECTION ( 'NONE',  ( -0.0000000000000000000, -0.0000000000000000000, -1.000000000000000000 ) ) ;
#47 = CARTESIAN_POINT ( 'NONE',  ( -0.5000000000000000000, 0.0000000000000000000, 0.2500000000000000000 ) ) ;
#48 = LINE ( 'NONE', #47, #171 ) ;
#49 =( NAMED_UNIT ( * ) SI_UNIT ( $, .STERADIAN. ) SOLID_ANGLE_UNIT ( ) );
#50 =( NAMED_UNIT ( * ) PLANE_ANGLE_UNIT ( ) SI_UNIT ( $, .RADIAN. ) );
#51 =( CONVERSION_BASED_UNIT ( 'INCH', #166 ) LENGTH_UNIT ( ) NAMED_UNIT ( #106 ) );
#52 =( LENGTH_UNIT ( ) NAMED_UNIT ( * ) SI_UNIT ( $, .METRE. ) );
#53 = PRESENTATION_STYLE_ASSIGNMENT (( #54 ) ) ;
#54 = SURFACE_STYLE_USAGE ( .BOTH. , #55 ) ;
#55 = SURFACE_SIDE_STYLE ('',( #56 ) ) ;
#56 = SURFACE_STYLE_FILL_AREA ( #57 ) ;
#57 = FILL_AREA_STYLE ('',( #58 ) ) ;
#58 = FILL_AREA_STYLE_COLOUR ( '', #207 ) ;
#59 = CARTESIAN_POINT ( 'NONE',  ( -0.2550000000000000000, 0.0000000000000000000, 0.0000000000000000000 ) ) ;
#60 = CARTESIAN_POINT ( 'NONE',  ( 0.5000000000000000000, 6.123233995736766000E-017, 0.0000000000000000000 ) ) ;
#61 = CARTESIAN_POINT ( 'NONE',  ( -0.5000000000000000000, 0.0000000000000000000, 0.0000000000000000000 ) ) ;
#62 = CARTESIAN_POINT ( 'NONE',  ( 0.2550000000000000000, 3.122849337825751200E-017, 0.0000000000000000000 ) ) ;
#63 = CARTESIAN_POINT ( 'NONE',  ( 0.5000000000000000000, 6.123233995736766000E-017, 0.2500000000000000000 ) ) ;
#64 = CARTESIAN_POINT ( 'NONE',  ( -0.5000000000000000000, 0.0000000000000000000, 0.2500000000000000000 ) ) ;
#65 = CARTESIAN_POINT ( 'NONE',  ( 0.2550000000000000000, 3.122849337825751200E-017, 0.2500000000000000000 ) ) ;
#66 = CARTESIAN_POINT ( 'NONE',  ( -0.2550000000000000000, 0.0000000000000000000, 0.2500000000000000000 ) ) ;
#67 = VERTEX_POINT ( 'NONE', #66 ) ;
#68 = VERTEX_POINT ( 'NONE', #65 ) ;
#69 = VERTEX_POINT ( 'NONE', #64 ) ;
#70 = VERTEX_POINT ( 'NONE', #63 ) ;
#71 = VERTEX_POINT ( 'NONE', #62 ) ;
#72 = VERTEX_POINT ( 'NONE', #61 ) ;
#73 = VERTEX_POINT ( 'NONE', #60 ) ;
#74 = VERTEX_POINT ( 'NONE', #59 ) ;
#75 = ORIENTED_EDGE ( 'NONE', *, *, #214, .F. ) ;
#76 = ORIENTED_EDGE ( 'NONE', *, *, #118, .F. ) ;
#77 = ORIENTED_EDGE ( 'NONE', *, *, #121, .F. ) ;
#78 = ORIENTED_EDGE ( 'NONE', *, *, #213, .T. ) ;
#79 = ORIENTED_EDGE ( 'NONE', *, *, #214, .T. ) ;
#80 = ORIENTED_EDGE ( 'NONE', *, *, #119, .F. ) ;
#81 = ORIENTED_EDGE ( 'NONE', *, *, #113, .T. ) ;
#82 = ORIENTED_EDGE ( 'NONE', *, *, #213, .F. ) ;
#83 = ORIENTED_EDGE ( 'NONE', *, *, #126, .F. ) ;
#84 = ORIENTED_EDGE ( 'NONE', *, *, #212, .T. ) ;
#85 = ORIENTED_EDGE ( 'NONE', *, *, #116, .T. ) ;
#86 = ORIENTED_EDGE ( 'NONE', *, *, #117, .T. ) ;
#87 = ORIENTED_EDGE ( 'NONE', *, *, #212, .F. ) ;
#88 = ORIENTED_EDGE ( 'NONE', *, *, #118, .T. ) ;
#89 = ORIENTED_EDGE ( 'NONE', *, *, #117, .F. ) ;
#90 = ORIENTED_EDGE ( 'NONE', *, *, #120, .T. ) ;
#91 = ORIENTED_EDGE ( 'NONE', *, *, #119, .T. ) ;
#92 = ORIENTED_EDGE ( 'NONE', *, *, #120, .F. ) ;
#93 = ORIENTED_EDGE ( 'NONE', *, *, #116, .F. ) ;
#94 = ORIENTED_EDGE ( 'NONE', *, *, #126, .T. ) ;
#95 = ORIENTED_EDGE ( 'NONE', *, *, #121, .T. ) ;
#96 = ORIENTED_EDGE ( 'NONE', *, *, #113, .F. ) ;
#97 = ORIENTED_EDGE ( 'NONE', *, *, #115, .T. ) ;
#98 = ORIENTED_EDGE ( 'NONE', *, *, #115, .F. ) ;
#99 = EDGE_LOOP ( 'NONE', ( #76, #80, #81, #79 ) ) ;
#100 = EDGE_LOOP ( 'NONE', ( #83, #84, #85, #82 ) ) ;
#101 = EDGE_LOOP ( 'NONE', ( #91, #97 ) ) ;
#102 = EDGE_LOOP ( 'NONE', ( #90, #94, #89, #93 ) ) ;
#103 = EDGE_LOOP ( 'NONE', ( #98, #88, #95, #96 ) ) ;
#104 = EDGE_LOOP ( 'NONE', ( #92, #87 ) ) ;
#105 = EDGE_LOOP ( 'NONE', ( #75, #77 ) ) ;
#106 = DIMENSIONAL_EXPONENTS ( 1.000000000000000000, 0.0000000000000000000, 0.0000000000000000000, 0.0000000000000000000, 0.0000000000000000000, 0.0000000000000000000, 0.0000000000000000000 ) ;
#107 = PRODUCT ( 'H250H', 'H250H', '', ( #173 ) ) ;
#108 = DIMENSIONAL_EXPONENTS ( 1.000000000000000000, 0.0000000000000000000, 0.0000000000000000000, 0.0000000000000000000, 0.0000000000000000000, 0.0000000000000000000, 0.0000000000000000000 ) ;
#109 = DIMENSIONAL_EXPONENTS ( 1.000000000000000000, 0.0000000000000000000, 0.0000000000000000000, 0.0000000000000000000, 0.0000000000000000000, 0.0000000000000000000, 0.0000000000000000000 ) ;
#110 = MANIFOLD_SOLID_BREP ( 'Boss-Extrude1', #170 ) ;
#111 = PRODUCT_DEFINITION_SHAPE ( 'NONE', 'NONE',  #202 ) ;
#112 = PRODUCT_DEFINITION_CONTEXT ( 'detailed design', #204, 'design' ) ;
#113 = EDGE_CURVE ( 'NONE', #69, #72, #48, .T. ) ;
#114 = COLOUR_RGB ( '',0.5686274509803921400, 0.5686274509803921400, 0.5882352941176470800 ) ;
#115 = EDGE_CURVE ( 'NONE', #70, #69, #223, .T. ) ;
#116 = EDGE_CURVE ( 'NONE', #67, #74, #41, .T. ) ;
#117 = EDGE_CURVE ( 'NONE', #74, #71, #222, .T. ) ;
#118 = EDGE_CURVE ( 'NONE', #70, #73, #33, .T. ) ;
#119 = EDGE_CURVE ( 'NONE', #69, #70, #221, .T. ) ;
#120 = EDGE_CURVE ( 'NONE', #67, #68, #206, .T. ) ;
#121 = EDGE_CURVE ( 'NONE', #73, #72, #208, .T. ) ;
#122 = ADVANCED_BREP_SHAPE_REPRESENTATION ( 'H250H', ( #110, #160 ), #164 ) ;
#123 = UNCERTAINTY_MEASURE_WITH_UNIT (LENGTH_MEASURE( 1.000000000000000100E-005 ), #176, 'distance_accuracy_value', 'NONE');
#124 = UNCERTAINTY_MEASURE_WITH_UNIT (LENGTH_MEASURE( 1.000000000000000100E-005 ), #51, 'distance_accuracy_value', 'NONE');
#125 = UNCERTAINTY_MEASURE_WITH_UNIT (LENGTH_MEASURE( 1.000000000000000100E-005 ), #191, 'distance_accuracy_value', 'NONE');
#126 = EDGE_CURVE ( 'NONE', #68, #71, #22, .T. ) ;
#127 = AXIS2_PLACEMENT_3D ( 'NONE', #14, #13, #12 ) ;
#128 = AXIS2_PLACEMENT_3D ( 'NONE', #42, #36, #37 ) ;
#129 = VECTOR ( 'NONE', #39, 39.37007874015748100 ) ;
#130 = AXIS2_PLACEMENT_3D ( 'NONE', #17, #16, #15 ) ;
#131 = AXIS2_PLACEMENT_3D ( 'NONE', #32, #27, #28 ) ;
#132 = VECTOR ( 'NONE', #34, 39.37007874015748100 ) ;
#133 = AXIS2_PLACEMENT_3D ( 'NONE', #38, #30, #31 ) ;
#134 = AXIS2_PLACEMENT_3D ( 'NONE', #23, #19, #18 ) ;
#135 = AXIS2_PLACEMENT_3D ( 'NONE', #29, #25, #24 ) ;
#136 = AXIS2_PLACEMENT_3D ( 'NONE', #198, #197, #196 ) ;
#137 = VECTOR ( 'NONE', #20, 39.37007874015748100 ) ;
#138 = FACE_OUTER_BOUND ( 'NONE', #100, .T. ) ;
#139 = AXIS2_PLACEMENT_3D ( 'NONE', #11, #10, #9 ) ;
#140 = FACE_OUTER_BOUND ( 'NONE', #99, .T. ) ;
#141 = CYLINDRICAL_SURFACE ( 'NONE', #139, 0.2550000000000000000 ) ;
#142 = FACE_OUTER_BOUND ( 'NONE', #105, .T. ) ;
#143 = AXIS2_PLACEMENT_3D ( 'NONE', #8, #7, #6 ) ;
#144 = CYLINDRICAL_SURFACE ( 'NONE', #143, 0.5000000000000000000 ) ;
#145 = FACE_BOUND ( 'NONE', #104, .T. ) ;
#146 = FACE_BOUND ( 'NONE', #26, .T. ) ;
#147 = FACE_OUTER_BOUND ( 'NONE', #101, .T. ) ;
#148 = FACE_OUTER_BOUND ( 'NONE', #102, .T. ) ;
#149 = AXIS2_PLACEMENT_3D ( 'NONE', #4, #3, #2 ) ;
#150 = FACE_OUTER_BOUND ( 'NONE', #103, .T. ) ;
#151 = AXIS2_PLACEMENT_3D ( 'NONE', #201, #200, #199 ) ;
#152 = CYLINDRICAL_SURFACE ( 'NONE', #136, 0.5000000000000000000 ) ;
#153 = AXIS2_PLACEMENT_3D ( 'NONE', #192, #188, #195 ) ;
#154 = CYLINDRICAL_SURFACE ( 'NONE', #153, 0.2550000000000000000 ) ;
#155 = LENGTH_MEASURE_WITH_UNIT ( LENGTH_MEASURE( 0.02539999999999999900 ), #190 );
#156 = STYLED_ITEM ( 'NONE', ( #177 ), #122 ) ;
#157 = PRESENTATION_LAYER_ASSIGNMENT (  '', '', ( #156 ) ) ;
#158 = MECHANICAL_DESIGN_GEOMETRIC_PRESENTATION_REPRESENTATION (  '', ( #156 ), #163 ) ;
#159 = LENGTH_MEASURE_WITH_UNIT ( LENGTH_MEASURE( 0.02539999999999999900 ), #174 );
#160 = AXIS2_PLACEMENT_3D ( 'NONE', #193, #194, #187 ) ;
#161 = PRODUCT_DEFINITION_FORMATION_WITH_SPECIFIED_SOURCE ( 'ANY', '', #107, .NOT_KNOWN. ) ;
#162 =( GEOMETRIC_REPRESENTATION_CONTEXT ( 3 ) GLOBAL_UNCERTAINTY_ASSIGNED_CONTEXT ( ( #124 ) ) GLOBAL_UNIT_ASSIGNED_CONTEXT ( ( #51, #50, #49 ) ) REPRESENTATION_CONTEXT ( 'NONE', 'WORKASPACE' ) );
#163 =( GEOMETRIC_REPRESENTATION_CONTEXT ( 3 ) GLOBAL_UNCERTAINTY_ASSIGNED_CONTEXT ( ( #123 ) ) GLOBAL_UNIT_ASSIGNED_CONTEXT ( ( #176, #175, #186 ) ) REPRESENTATION_CONTEXT ( 'NONE', 'WORKASPACE' ) );
#164 =( GEOMETRIC_REPRESENTATION_CONTEXT ( 3 ) GLOBAL_UNCERTAINTY_ASSIGNED_CONTEXT ( ( #125 ) ) GLOBAL_UNIT_ASSIGNED_CONTEXT ( ( #191, #189, #185 ) ) REPRESENTATION_CONTEXT ( 'NONE', 'WORKASPACE' ) );
#165 = AXIS2_PLACEMENT_3D ( 'NONE', #45, #44, #43 ) ;
#166 = LENGTH_MEASURE_WITH_UNIT ( LENGTH_MEASURE( 0.02539999999999999900 ), #52 );
#167 = MECHANICAL_DESIGN_GEOMETRIC_PRESENTATION_REPRESENTATION (  '', ( #169 ), #162 ) ;
#168 = PRESENTATION_LAYER_ASSIGNMENT (  '', '', ( #169 ) ) ;
#169 = STYLED_ITEM ( 'NONE', ( #53 ), #110 ) ;
#170 = CLOSED_SHELL ( 'NONE', ( #220, #219, #218, #217, #216, #215 ) ) ;
#171 = VECTOR ( 'NONE', #46, 39.37007874015748100 ) ;
#172 = APPLICATION_PROTOCOL_DEFINITION ( 'draft international standard', 'automotive_design', 1998, #204 ) ;
#173 = PRODUCT_CONTEXT ( 'NONE', #205, 'mechanical' ) ;
#174 =( LENGTH_UNIT ( ) NAMED_UNIT ( * ) SI_UNIT ( $, .METRE. ) );
#175 =( NAMED_UNIT ( * ) PLANE_ANGLE_UNIT ( ) SI_UNIT ( $, .RADIAN. ) );
#176 =( CONVERSION_BASED_UNIT ( 'INCH', #159 ) LENGTH_UNIT ( ) NAMED_UNIT ( #109 ) );
#177 = PRESENTATION_STYLE_ASSIGNMENT (( #180 ) ) ;
#178 = SURFACE_STYLE_FILL_AREA ( #181 ) ;
#179 = SURFACE_SIDE_STYLE ('',( #178 ) ) ;
#180 = SURFACE_STYLE_USAGE ( .BOTH. , #179 ) ;
#181 = FILL_AREA_STYLE ('',( #183 ) ) ;
#182 = SHAPE_DEFINITION_REPRESENTATION ( #111, #122 ) ;
#183 = FILL_AREA_STYLE_COLOUR ( '', #114 ) ;
#184 = APPLICATION_PROTOCOL_DEFINITION ( 'draft international standard', 'automotive_design', 1998, #205 ) ;
#185 =( NAMED_UNIT ( * ) SI_UNIT ( $, .STERADIAN. ) SOLID_ANGLE_UNIT ( ) );
#186 =( NAMED_UNIT ( * ) SI_UNIT ( $, .STERADIAN. ) SOLID_ANGLE_UNIT ( ) );
#187 = DIRECTION ( 'NONE',  ( 1.000000000000000000, 0.0000000000000000000, 0.0000000000000000000 ) ) ;
#188 = DIRECTION ( 'NONE',  ( -0.0000000000000000000, -0.0000000000000000000, -1.000000000000000000 ) ) ;
#189 =( NAMED_UNIT ( * ) PLANE_ANGLE_UNIT ( ) SI_UNIT ( $, .RADIAN. ) );
#190 =( LENGTH_UNIT ( ) NAMED_UNIT ( * ) SI_UNIT ( $, .METRE. ) );
#191 =( CONVERSION_BASED_UNIT ( 'INCH', #155 ) LENGTH_UNIT ( ) NAMED_UNIT ( #108 ) );
#192 = CARTESIAN_POINT ( 'NONE',  ( 0.0000000000000000000, 0.0000000000000000000, 0.2500000000000000000 ) ) ;
#193 = CARTESIAN_POINT ( 'NONE',  ( 0.0000000000000000000, 0.0000000000000000000, 0.0000000000000000000 ) ) ;
#194 = DIRECTION ( 'NONE',  ( 0.0000000000000000000, 0.0000000000000000000, 1.000000000000000000 ) ) ;
#195 = DIRECTION ( 'NONE',  ( -1.000000000000000000, 0.0000000000000000000, 0.0000000000000000000 ) ) ;
#196 = DIRECTION ( 'NONE',  ( -1.000000000000000000, 0.0000000000000000000, 0.0000000000000000000 ) ) ;
#197 = DIRECTION ( 'NONE',  ( -0.0000000000000000000, -0.0000000000000000000, -1.000000000000000000 ) ) ;
#198 = CARTESIAN_POINT ( 'NONE',  ( 0.0000000000000000000, 0.0000000000000000000, 0.2500000000000000000 ) ) ;
#199 = DIRECTION ( 'NONE',  ( 1.000000000000000000, 0.0000000000000000000, -0.0000000000000000000 ) ) ;
#200 = DIRECTION ( 'NONE',  ( 0.0000000000000000000, 0.0000000000000000000, 1.000000000000000000 ) ) ;
#201 = CARTESIAN_POINT ( 'NONE',  ( 0.0000000000000000000, 0.0000000000000000000, 0.2500000000000000000 ) ) ;
#202 = PRODUCT_DEFINITION ( 'UNKNOWN', '', #161, #112 ) ;
#203 = PRODUCT_RELATED_PRODUCT_CATEGORY ( 'part', '', ( #107 ) ) ;
#204 = APPLICATION_CONTEXT ( 'automotive_design' ) ;
#205 = APPLICATION_CONTEXT ( 'automotive_design' ) ;
#206 = CIRCLE ( 'NONE', #131, 0.2550000000000000000 ) ;
#207 = COLOUR_RGB ( '',0.5686274509803921400, 0.5686274509803921400, 0.5882352941176470800 ) ;
#208 = CIRCLE ( 'NONE', #135, 0.5000000000000000000 ) ;
#209 = CIRCLE ( 'NONE', #134, 0.2550000000000000000 ) ;
#210 = CIRCLE ( 'NONE', #130, 0.2550000000000000000 ) ;
#211 = CIRCLE ( 'NONE', #127, 0.5000000000000000000 ) ;
#212 = EDGE_CURVE ( 'NONE', #68, #67, #209, .T. ) ;
#213 = EDGE_CURVE ( 'NONE', #71, #74, #210, .T. ) ;
#214 = EDGE_CURVE ( 'NONE', #72, #73, #211, .T. ) ;
#215 = ADVANCED_FACE ( 'NONE', ( #138 ), #141, .F. ) ;
#216 = ADVANCED_FACE ( 'NONE', ( #140 ), #144, .T. ) ;
#217 = ADVANCED_FACE ( 'NONE', ( #142, #146 ), #5, .F. ) ;
#218 = ADVANCED_FACE ( 'NONE', ( #147, #145 ), #1, .T. ) ;
#219 = ADVANCED_FACE ( 'NONE', ( #150 ), #152, .T. ) ;
#220 = ADVANCED_FACE ( 'NONE', ( #148 ), #154, .F. ) ;
#221 = CIRCLE ( 'NONE', #133, 0.5000000000000000000 ) ;
#222 = CIRCLE ( 'NONE', #128, 0.2550000000000000000 ) ;
#223 = CIRCLE ( 'NONE', #165, 0.5000000000000000000 ) ;
ENDSEC;
END-ISO-10303-21;
