ISO-10303-21;
HEADER;
FILE_DESCRIPTION (( 'STEP AP214' ),
    '1' );
FILE_NAME ('H250HN45.step',
    '2012-04-20T20:59:18',
    ( '' ),
    ( '' ),
    'SwSTEP 2.0',
    'SolidWorks 2012',
    '' );
FILE_SCHEMA (( 'AUTOMOTIVE_DESIGN' ));
ENDSEC;

DATA;
#1 = UNCERTAINTY_MEASURE_WITH_UNIT (LENGTH_MEASURE( 1.000000000000000100E-005 ), #54, 'distance_accuracy_value', 'NONE');
#2 = PLANE ( 'NONE',  #142 ) ;
#3 = DIRECTION ( 'NONE',  ( 1.000000000000000000, 0.0000000000000000000, -0.0000000000000000000 ) ) ;
#4 = DIRECTION ( 'NONE',  ( 0.0000000000000000000, 0.0000000000000000000, 1.000000000000000000 ) ) ;
#5 = CARTESIAN_POINT ( 'NONE',  ( 0.0000000000000000000, 0.0000000000000000000, 0.0000000000000000000 ) ) ;
#6 = PLANE ( 'NONE',  #140 ) ;
#7 = DIRECTION ( 'NONE',  ( -1.000000000000000000, 0.0000000000000000000, 0.0000000000000000000 ) ) ;
#8 = DIRECTION ( 'NONE',  ( -0.0000000000000000000, -0.0000000000000000000, -1.000000000000000000 ) ) ;
#9 = CARTESIAN_POINT ( 'NONE',  ( 0.0000000000000000000, 0.0000000000000000000, 0.2500000000000000000 ) ) ;
#10 = DIRECTION ( 'NONE',  ( -1.000000000000000000, 0.0000000000000000000, 0.0000000000000000000 ) ) ;
#11 = DIRECTION ( 'NONE',  ( -0.0000000000000000000, -0.0000000000000000000, -1.000000000000000000 ) ) ;
#12 = CARTESIAN_POINT ( 'NONE',  ( 0.0000000000000000000, 0.0000000000000000000, 0.2500000000000000000 ) ) ;
#13 = DIRECTION ( 'NONE',  ( 1.000000000000000000, 0.0000000000000000000, 0.0000000000000000000 ) ) ;
#14 = DIRECTION ( 'NONE',  ( 0.0000000000000000000, 0.0000000000000000000, 1.000000000000000000 ) ) ;
#15 = CARTESIAN_POINT ( 'NONE',  ( 0.0000000000000000000, 0.0000000000000000000, 0.2500000000000000000 ) ) ;
#16 = DIRECTION ( 'NONE',  ( 1.000000000000000000, 0.0000000000000000000, 0.0000000000000000000 ) ) ;
#17 = DIRECTION ( 'NONE',  ( 0.0000000000000000000, 0.0000000000000000000, 1.000000000000000000 ) ) ;
#18 = CARTESIAN_POINT ( 'NONE',  ( 0.0000000000000000000, 0.0000000000000000000, 0.0000000000000000000 ) ) ;
#19 = DIRECTION ( 'NONE',  ( 1.000000000000000000, 0.0000000000000000000, 0.0000000000000000000 ) ) ;
#20 = DIRECTION ( 'NONE',  ( 0.0000000000000000000, 0.0000000000000000000, 1.000000000000000000 ) ) ;
#21 = DIRECTION ( 'NONE',  ( -0.0000000000000000000, -0.0000000000000000000, -1.000000000000000000 ) ) ;
#22 = CARTESIAN_POINT ( 'NONE',  ( -0.2550000000000000000, 0.0000000000000000000, 0.2500000000000000000 ) ) ;
#23 = LINE ( 'NONE', #22, #128 ) ;
#24 = CARTESIAN_POINT ( 'NONE',  ( 0.0000000000000000000, 0.0000000000000000000, 0.0000000000000000000 ) ) ;
#25 = DIRECTION ( 'NONE',  ( 1.000000000000000000, 0.0000000000000000000, 0.0000000000000000000 ) ) ;
#26 = DIRECTION ( 'NONE',  ( 0.0000000000000000000, 0.0000000000000000000, 1.000000000000000000 ) ) ;
#27 = CARTESIAN_POINT ( 'NONE',  ( 0.0000000000000000000, 0.0000000000000000000, 0.0000000000000000000 ) ) ;
#28 = DIRECTION ( 'NONE',  ( 1.000000000000000000, 0.0000000000000000000, 0.0000000000000000000 ) ) ;
#29 = DIRECTION ( 'NONE',  ( 0.0000000000000000000, 0.0000000000000000000, 1.000000000000000000 ) ) ;
#30 = DIRECTION ( 'NONE',  ( -0.0000000000000000000, -0.0000000000000000000, -1.000000000000000000 ) ) ;
#31 = CARTESIAN_POINT ( 'NONE',  ( 0.5000000000000000000, 6.123233995736766000E-017, 0.2500000000000000000 ) ) ;
#32 = LINE ( 'NONE', #31, #124 ) ;
#33 = DIRECTION ( 'NONE',  ( -0.0000000000000000000, -0.0000000000000000000, -1.000000000000000000 ) ) ;
#34 = CARTESIAN_POINT ( 'NONE',  ( -0.5000000000000000000, 0.0000000000000000000, 0.2500000000000000000 ) ) ;
#35 = LINE ( 'NONE', #34, #122 ) ;
#36 = DIRECTION ( 'NONE',  ( -0.0000000000000000000, -0.0000000000000000000, -1.000000000000000000 ) ) ;
#37 = CARTESIAN_POINT ( 'NONE',  ( 0.2550000000000000000, 3.122849337825751200E-017, 0.2500000000000000000 ) ) ;
#38 = LINE ( 'NONE', #37, #120 ) ;
#39 = CARTESIAN_POINT ( 'NONE',  ( 0.0000000000000000000, 0.0000000000000000000, 0.2500000000000000000 ) ) ;
#40 = DIRECTION ( 'NONE',  ( 1.000000000000000000, 0.0000000000000000000, 0.0000000000000000000 ) ) ;
#41 = DIRECTION ( 'NONE',  ( 0.0000000000000000000, 0.0000000000000000000, 1.000000000000000000 ) ) ;
#42 = CARTESIAN_POINT ( 'NONE',  ( 0.0000000000000000000, 0.0000000000000000000, 0.2500000000000000000 ) ) ;
#43 = DIRECTION ( 'NONE',  ( 1.000000000000000000, 0.0000000000000000000, 0.0000000000000000000 ) ) ;
#44 = DIRECTION ( 'NONE',  ( 0.0000000000000000000, 0.0000000000000000000, 1.000000000000000000 ) ) ;
#45 = CARTESIAN_POINT ( 'NONE',  ( 0.0000000000000000000, 0.0000000000000000000, 0.0000000000000000000 ) ) ;
#46 = DIRECTION ( 'NONE',  ( 1.000000000000000000, 0.0000000000000000000, 0.0000000000000000000 ) ) ;
#47 = DIRECTION ( 'NONE',  ( 0.0000000000000000000, 0.0000000000000000000, 1.000000000000000000 ) ) ;
#48 = CARTESIAN_POINT ( 'NONE',  ( 0.0000000000000000000, 0.0000000000000000000, 0.2500000000000000000 ) ) ;
#49 = EDGE_LOOP ( 'NONE', ( #101, #80, #87, #89 ) ) ;
#50 = EDGE_LOOP ( 'NONE', ( #78, #84, #97, #95 ) ) ;
#51 = EDGE_LOOP ( 'NONE', ( #83, #94 ) ) ;
#52 =( NAMED_UNIT ( * ) SI_UNIT ( $, .STERADIAN. ) SOLID_ANGLE_UNIT ( ) );
#53 =( NAMED_UNIT ( * ) PLANE_ANGLE_UNIT ( ) SI_UNIT ( $, .RADIAN. ) );
#54 =( CONVERSION_BASED_UNIT ( 'INCH', #153 ) LENGTH_UNIT ( ) NAMED_UNIT ( #113 ) );
#55 =( LENGTH_UNIT ( ) NAMED_UNIT ( * ) SI_UNIT ( $, .METRE. ) );
#56 = PRESENTATION_STYLE_ASSIGNMENT (( #57 ) ) ;
#57 = SURFACE_STYLE_USAGE ( .BOTH. , #58 ) ;
#58 = SURFACE_SIDE_STYLE ('',( #59 ) ) ;
#59 = SURFACE_STYLE_FILL_AREA ( #60 ) ;
#60 = FILL_AREA_STYLE ('',( #61 ) ) ;
#61 = FILL_AREA_STYLE_COLOUR ( '', #213 ) ;
#62 = CARTESIAN_POINT ( 'NONE',  ( -0.5000000000000000000, 0.0000000000000000000, 0.0000000000000000000 ) ) ;
#63 = CARTESIAN_POINT ( 'NONE',  ( 0.5000000000000000000, 6.123233995736766000E-017, 0.0000000000000000000 ) ) ;
#64 = CARTESIAN_POINT ( 'NONE',  ( -0.5000000000000000000, 0.0000000000000000000, 0.2500000000000000000 ) ) ;
#65 = CARTESIAN_POINT ( 'NONE',  ( 0.5000000000000000000, 6.123233995736766000E-017, 0.2500000000000000000 ) ) ;
#66 = CARTESIAN_POINT ( 'NONE',  ( 0.2550000000000000000, 3.122849337825751200E-017, 0.0000000000000000000 ) ) ;
#67 = CARTESIAN_POINT ( 'NONE',  ( 0.2550000000000000000, 3.122849337825751200E-017, 0.2500000000000000000 ) ) ;
#68 = CARTESIAN_POINT ( 'NONE',  ( -0.2550000000000000000, 0.0000000000000000000, 0.0000000000000000000 ) ) ;
#69 = CARTESIAN_POINT ( 'NONE',  ( -0.2550000000000000000, 0.0000000000000000000, 0.2500000000000000000 ) ) ;
#70 = VERTEX_POINT ( 'NONE', #69 ) ;
#71 = VERTEX_POINT ( 'NONE', #68 ) ;
#72 = VERTEX_POINT ( 'NONE', #67 ) ;
#73 = VERTEX_POINT ( 'NONE', #66 ) ;
#74 = VERTEX_POINT ( 'NONE', #65 ) ;
#75 = VERTEX_POINT ( 'NONE', #64 ) ;
#76 = VERTEX_POINT ( 'NONE', #63 ) ;
#77 = VERTEX_POINT ( 'NONE', #62 ) ;
#78 = ORIENTED_EDGE ( 'NONE', *, *, #196, .F. ) ;
#79 = ORIENTED_EDGE ( 'NONE', *, *, #202, .F. ) ;
#80 = ORIENTED_EDGE ( 'NONE', *, *, #204, .F. ) ;
#81 = ORIENTED_EDGE ( 'NONE', *, *, #203, .F. ) ;
#82 = ORIENTED_EDGE ( 'NONE', *, *, #198, .T. ) ;
#83 = ORIENTED_EDGE ( 'NONE', *, *, #204, .T. ) ;
#84 = ORIENTED_EDGE ( 'NONE', *, *, #199, .T. ) ;
#85 = ORIENTED_EDGE ( 'NONE', *, *, #199, .F. ) ;
#86 = ORIENTED_EDGE ( 'NONE', *, *, #203, .T. ) ;
#87 = ORIENTED_EDGE ( 'NONE', *, *, #197, .T. ) ;
#88 = ORIENTED_EDGE ( 'NONE', *, *, #195, .F. ) ;
#89 = ORIENTED_EDGE ( 'NONE', *, *, #202, .T. ) ;
#90 = ORIENTED_EDGE ( 'NONE', *, *, #192, .F. ) ;
#91 = ORIENTED_EDGE ( 'NONE', *, *, #192, .T. ) ;
#92 = ORIENTED_EDGE ( 'NONE', *, *, #197, .F. ) ;
#93 = ORIENTED_EDGE ( 'NONE', *, *, #200, .T. ) ;
#94 = ORIENTED_EDGE ( 'NONE', *, *, #195, .T. ) ;
#95 = ORIENTED_EDGE ( 'NONE', *, *, #194, .F. ) ;
#96 = ORIENTED_EDGE ( 'NONE', *, *, #194, .T. ) ;
#97 = ORIENTED_EDGE ( 'NONE', *, *, #201, .T. ) ;
#98 = ORIENTED_EDGE ( 'NONE', *, *, #200, .F. ) ;
#99 = ORIENTED_EDGE ( 'NONE', *, *, #196, .T. ) ;
#100 = ORIENTED_EDGE ( 'NONE', *, *, #201, .F. ) ;
#101 = ORIENTED_EDGE ( 'NONE', *, *, #198, .F. ) ;
#102 = EDGE_LOOP ( 'NONE', ( #91, #99, #98, #100 ) ) ;
#103 = EDGE_LOOP ( 'NONE', ( #88, #82, #86, #92 ) ) ;
#104 = EDGE_LOOP ( 'NONE', ( #90, #85 ) ) ;
#105 = EDGE_LOOP ( 'NONE', ( #79, #81 ) ) ;
#106 = EDGE_LOOP ( 'NONE', ( #93, #96 ) ) ;
#107 =( GEOMETRIC_REPRESENTATION_CONTEXT ( 3 ) GLOBAL_UNCERTAINTY_ASSIGNED_CONTEXT ( ( #118 ) ) GLOBAL_UNIT_ASSIGNED_CONTEXT ( ( #167, #166, #163 ) ) REPRESENTATION_CONTEXT ( 'NONE', 'WORKASPACE' ) );
#108 =( GEOMETRIC_REPRESENTATION_CONTEXT ( 3 ) GLOBAL_UNCERTAINTY_ASSIGNED_CONTEXT ( ( #1 ) ) GLOBAL_UNIT_ASSIGNED_CONTEXT ( ( #54, #53, #52 ) ) REPRESENTATION_CONTEXT ( 'NONE', 'WORKASPACE' ) );
#109 =( GEOMETRIC_REPRESENTATION_CONTEXT ( 3 ) GLOBAL_UNCERTAINTY_ASSIGNED_CONTEXT ( ( #119 ) ) GLOBAL_UNIT_ASSIGNED_CONTEXT ( ( #182, #181, #178 ) ) REPRESENTATION_CONTEXT ( 'NONE', 'WORKASPACE' ) );
#110 = DIMENSIONAL_EXPONENTS ( 1.000000000000000000, 0.0000000000000000000, 0.0000000000000000000, 0.0000000000000000000, 0.0000000000000000000, 0.0000000000000000000, 0.0000000000000000000 ) ;
#111 = DIMENSIONAL_EXPONENTS ( 1.000000000000000000, 0.0000000000000000000, 0.0000000000000000000, 0.0000000000000000000, 0.0000000000000000000, 0.0000000000000000000, 0.0000000000000000000 ) ;
#112 = PRODUCT ( 'H250HN45', 'H250HN45', '', ( #175 ) ) ;
#113 = DIMENSIONAL_EXPONENTS ( 1.000000000000000000, 0.0000000000000000000, 0.0000000000000000000, 0.0000000000000000000, 0.0000000000000000000, 0.0000000000000000000, 0.0000000000000000000 ) ;
#114 = MANIFOLD_SOLID_BREP ( 'Boss-Extrude1', #161 ) ;
#115 = PRODUCT_DEFINITION_CONTEXT ( 'detailed design', #209, 'design' ) ;
#116 = PRODUCT_DEFINITION_SHAPE ( 'NONE', 'NONE',  #210 ) ;
#117 = ADVANCED_BREP_SHAPE_REPRESENTATION ( 'H250HN45', ( #114, #151 ), #109 ) ;
#118 = UNCERTAINTY_MEASURE_WITH_UNIT (LENGTH_MEASURE( 1.000000000000000100E-005 ), #167, 'distance_accuracy_value', 'NONE');
#119 = UNCERTAINTY_MEASURE_WITH_UNIT (LENGTH_MEASURE( 1.000000000000000100E-005 ), #182, 'distance_accuracy_value', 'NONE');
#120 = VECTOR ( 'NONE', #36, 39.37007874015748100 ) ;
#121 = AXIS2_PLACEMENT_3D ( 'NONE', #24, #20, #19 ) ;
#122 = VECTOR ( 'NONE', #33, 39.37007874015748100 ) ;
#123 = AXIS2_PLACEMENT_3D ( 'NONE', #39, #29, #28 ) ;
#124 = VECTOR ( 'NONE', #30, 39.37007874015748100 ) ;
#125 = AXIS2_PLACEMENT_3D ( 'NONE', #27, #26, #25 ) ;
#126 = AXIS2_PLACEMENT_3D ( 'NONE', #18, #17, #16 ) ;
#127 = AXIS2_PLACEMENT_3D ( 'NONE', #188, #187, #186 ) ;
#128 = VECTOR ( 'NONE', #21, 39.37007874015748100 ) ;
#129 = FACE_OUTER_BOUND ( 'NONE', #50, .T. ) ;
#130 = AXIS2_PLACEMENT_3D ( 'NONE', #12, #11, #10 ) ;
#131 = FACE_OUTER_BOUND ( 'NONE', #49, .T. ) ;
#132 = CYLINDRICAL_SURFACE ( 'NONE', #130, 0.2550000000000000000 ) ;
#133 = FACE_OUTER_BOUND ( 'NONE', #105, .T. ) ;
#134 = AXIS2_PLACEMENT_3D ( 'NONE', #9, #8, #7 ) ;
#135 = CYLINDRICAL_SURFACE ( 'NONE', #134, 0.5000000000000000000 ) ;
#136 = FACE_BOUND ( 'NONE', #104, .T. ) ;
#137 = FACE_BOUND ( 'NONE', #106, .T. ) ;
#138 = FACE_OUTER_BOUND ( 'NONE', #51, .T. ) ;
#139 = FACE_OUTER_BOUND ( 'NONE', #102, .T. ) ;
#140 = AXIS2_PLACEMENT_3D ( 'NONE', #5, #4, #3 ) ;
#141 = FACE_OUTER_BOUND ( 'NONE', #103, .T. ) ;
#142 = AXIS2_PLACEMENT_3D ( 'NONE', #191, #190, #189 ) ;
#143 = CYLINDRICAL_SURFACE ( 'NONE', #127, 0.5000000000000000000 ) ;
#144 = AXIS2_PLACEMENT_3D ( 'NONE', #185, #184, #183 ) ;
#145 = CYLINDRICAL_SURFACE ( 'NONE', #144, 0.2550000000000000000 ) ;
#146 = LENGTH_MEASURE_WITH_UNIT ( LENGTH_MEASURE( 0.02539999999999999900 ), #180 );
#147 = STYLED_ITEM ( 'NONE', ( #169 ), #117 ) ;
#148 = PRESENTATION_LAYER_ASSIGNMENT (  '', '', ( #147 ) ) ;
#149 = MECHANICAL_DESIGN_GEOMETRIC_PRESENTATION_REPRESENTATION (  '', ( #147 ), #107 ) ;
#150 = LENGTH_MEASURE_WITH_UNIT ( LENGTH_MEASURE( 0.02539999999999999900 ), #168 );
#151 = AXIS2_PLACEMENT_3D ( 'NONE', #176, #162, #165 ) ;
#152 = PRODUCT_DEFINITION_FORMATION_WITH_SPECIFIED_SOURCE ( 'ANY', '', #112, .NOT_KNOWN. ) ;
#153 = LENGTH_MEASURE_WITH_UNIT ( LENGTH_MEASURE( 0.02539999999999999900 ), #55 );
#154 = AXIS2_PLACEMENT_3D ( 'NONE', #42, #41, #40 ) ;
#155 = MECHANICAL_DESIGN_GEOMETRIC_PRESENTATION_REPRESENTATION (  '', ( #156 ), #108 ) ;
#156 = STYLED_ITEM ( 'NONE', ( #56 ), #114 ) ;
#157 = PRESENTATION_LAYER_ASSIGNMENT (  '', '', ( #156 ) ) ;
#158 = AXIS2_PLACEMENT_3D ( 'NONE', #15, #14, #13 ) ;
#159 = AXIS2_PLACEMENT_3D ( 'NONE', #48, #47, #46 ) ;
#160 = AXIS2_PLACEMENT_3D ( 'NONE', #45, #44, #43 ) ;
#161 = CLOSED_SHELL ( 'NONE', ( #220, #219, #218, #207, #206, #205 ) ) ;
#162 = DIRECTION ( 'NONE',  ( 0.0000000000000000000, 0.0000000000000000000, 1.000000000000000000 ) ) ;
#163 =( NAMED_UNIT ( * ) SI_UNIT ( $, .STERADIAN. ) SOLID_ANGLE_UNIT ( ) );
#164 = SHAPE_DEFINITION_REPRESENTATION ( #116, #117 ) ;
#165 = DIRECTION ( 'NONE',  ( 1.000000000000000000, 0.0000000000000000000, 0.0000000000000000000 ) ) ;
#166 =( NAMED_UNIT ( * ) PLANE_ANGLE_UNIT ( ) SI_UNIT ( $, .RADIAN. ) );
#167 =( CONVERSION_BASED_UNIT ( 'INCH', #150 ) LENGTH_UNIT ( ) NAMED_UNIT ( #111 ) );
#168 =( LENGTH_UNIT ( ) NAMED_UNIT ( * ) SI_UNIT ( $, .METRE. ) );
#169 = PRESENTATION_STYLE_ASSIGNMENT (( #170 ) ) ;
#170 = SURFACE_STYLE_USAGE ( .BOTH. , #171 ) ;
#171 = SURFACE_SIDE_STYLE ('',( #172 ) ) ;
#172 = SURFACE_STYLE_FILL_AREA ( #173 ) ;
#173 = FILL_AREA_STYLE ('',( #174 ) ) ;
#174 = FILL_AREA_STYLE_COLOUR ( '', #193 ) ;
#175 = PRODUCT_CONTEXT ( 'NONE', #208, 'mechanical' ) ;
#176 = CARTESIAN_POINT ( 'NONE',  ( 0.0000000000000000000, 0.0000000000000000000, 0.0000000000000000000 ) ) ;
#177 = APPLICATION_PROTOCOL_DEFINITION ( 'draft international standard', 'automotive_design', 1998, #209 ) ;
#178 =( NAMED_UNIT ( * ) SI_UNIT ( $, .STERADIAN. ) SOLID_ANGLE_UNIT ( ) );
#179 = APPLICATION_PROTOCOL_DEFINITION ( 'draft international standard', 'automotive_design', 1998, #208 ) ;
#180 =( LENGTH_UNIT ( ) NAMED_UNIT ( * ) SI_UNIT ( $, .METRE. ) );
#181 =( NAMED_UNIT ( * ) PLANE_ANGLE_UNIT ( ) SI_UNIT ( $, .RADIAN. ) );
#182 =( CONVERSION_BASED_UNIT ( 'INCH', #146 ) LENGTH_UNIT ( ) NAMED_UNIT ( #110 ) );
#183 = DIRECTION ( 'NONE',  ( -1.000000000000000000, 0.0000000000000000000, 0.0000000000000000000 ) ) ;
#184 = DIRECTION ( 'NONE',  ( -0.0000000000000000000, -0.0000000000000000000, -1.000000000000000000 ) ) ;
#185 = CARTESIAN_POINT ( 'NONE',  ( 0.0000000000000000000, 0.0000000000000000000, 0.2500000000000000000 ) ) ;
#186 = DIRECTION ( 'NONE',  ( -1.000000000000000000, 0.0000000000000000000, 0.0000000000000000000 ) ) ;
#187 = DIRECTION ( 'NONE',  ( -0.0000000000000000000, -0.0000000000000000000, -1.000000000000000000 ) ) ;
#188 = CARTESIAN_POINT ( 'NONE',  ( 0.0000000000000000000, 0.0000000000000000000, 0.2500000000000000000 ) ) ;
#189 = DIRECTION ( 'NONE',  ( 1.000000000000000000, 0.0000000000000000000, -0.0000000000000000000 ) ) ;
#190 = DIRECTION ( 'NONE',  ( 0.0000000000000000000, 0.0000000000000000000, 1.000000000000000000 ) ) ;
#191 = CARTESIAN_POINT ( 'NONE',  ( 0.0000000000000000000, 0.0000000000000000000, 0.2500000000000000000 ) ) ;
#192 = EDGE_CURVE ( 'NONE', #70, #72, #223, .T. ) ;
#193 = COLOUR_RGB ( '',0.5686274509803921400, 0.5686274509803921400, 0.5882352941176470800 ) ;
#194 = EDGE_CURVE ( 'NONE', #73, #71, #222, .T. ) ;
#195 = EDGE_CURVE ( 'NONE', #74, #75, #221, .T. ) ;
#196 = EDGE_CURVE ( 'NONE', #72, #73, #38, .T. ) ;
#197 = EDGE_CURVE ( 'NONE', #75, #77, #35, .T. ) ;
#198 = EDGE_CURVE ( 'NONE', #74, #76, #32, .T. ) ;
#199 = EDGE_CURVE ( 'NONE', #72, #70, #212, .T. ) ;
#200 = EDGE_CURVE ( 'NONE', #71, #73, #214, .T. ) ;
#201 = EDGE_CURVE ( 'NONE', #70, #71, #23, .T. ) ;
#202 = EDGE_CURVE ( 'NONE', #77, #76, #215, .T. ) ;
#203 = EDGE_CURVE ( 'NONE', #76, #77, #216, .T. ) ;
#204 = EDGE_CURVE ( 'NONE', #75, #74, #217, .T. ) ;
#205 = ADVANCED_FACE ( 'NONE', ( #129 ), #132, .F. ) ;
#206 = ADVANCED_FACE ( 'NONE', ( #131 ), #135, .T. ) ;
#207 = ADVANCED_FACE ( 'NONE', ( #133, #137 ), #6, .F. ) ;
#208 = APPLICATION_CONTEXT ( 'automotive_design' ) ;
#209 = APPLICATION_CONTEXT ( 'automotive_design' ) ;
#210 = PRODUCT_DEFINITION ( 'UNKNOWN', '', #152, #115 ) ;
#211 = PRODUCT_RELATED_PRODUCT_CATEGORY ( 'part', '', ( #112 ) ) ;
#212 = CIRCLE ( 'NONE', #123, 0.2550000000000000000 ) ;
#213 = COLOUR_RGB ( '',0.5686274509803921400, 0.5686274509803921400, 0.5882352941176470800 ) ;
#214 = CIRCLE ( 'NONE', #125, 0.2550000000000000000 ) ;
#215 = CIRCLE ( 'NONE', #121, 0.5000000000000000000 ) ;
#216 = CIRCLE ( 'NONE', #126, 0.5000000000000000000 ) ;
#217 = CIRCLE ( 'NONE', #158, 0.5000000000000000000 ) ;
#218 = ADVANCED_FACE ( 'NONE', ( #138, #136 ), #2, .T. ) ;
#219 = ADVANCED_FACE ( 'NONE', ( #141 ), #143, .T. ) ;
#220 = ADVANCED_FACE ( 'NONE', ( #139 ), #145, .F. ) ;
#221 = CIRCLE ( 'NONE', #154, 0.5000000000000000000 ) ;
#222 = CIRCLE ( 'NONE', #160, 0.2550000000000000000 ) ;
#223 = CIRCLE ( 'NONE', #159, 0.2550000000000000000 ) ;
ENDSEC;
END-ISO-10303-21;
