ISO-10303-21;
HEADER;
FILE_DESCRIPTION (( 'STEP AP214' ),
    '1' );
FILE_NAME ('P063BF.step',
    '2012-04-20T20:59:51',
    ( '' ),
    ( '' ),
    'SwSTEP 2.0',
    'SolidWorks 2012',
    '' );
FILE_SCHEMA (( 'AUTOMOTIVE_DESIGN' ));
ENDSEC;

DATA;
#1 = UNCERTAINTY_MEASURE_WITH_UNIT (LENGTH_MEASURE( 1.000000000000000100E-005 ), #177, 'distance_accuracy_value', 'NONE');
#2 = ADVANCED_BREP_SHAPE_REPRESENTATION ( 'P063BF', ( #209, #134 ), #204 ) ;
#3 = UNCERTAINTY_MEASURE_WITH_UNIT (LENGTH_MEASURE( 1.000000000000000100E-005 ), #198, 'distance_accuracy_value', 'NONE');
#4 = UNCERTAINTY_MEASURE_WITH_UNIT (LENGTH_MEASURE( 1.000000000000000100E-005 ), #200, 'distance_accuracy_value', 'NONE');
#5 = CARTESIAN_POINT ( 'NONE',  ( 0.2499999999999998900, 0.06250000000000000000, -0.7500000000000001100 ) ) ;
#6 = LINE ( 'NONE', #5, #144 ) ;
#7 = DIRECTION ( 'NONE',  ( -0.0000000000000000000, -1.000000000000000000, -0.0000000000000000000 ) ) ;
#8 = CARTESIAN_POINT ( 'NONE',  ( 0.0000000000000000000, 0.06250000000000000000, 0.0000000000000000000 ) ) ;
#9 = LINE ( 'NONE', #8, #146 ) ;
#10 = DIRECTION ( 'NONE',  ( 1.000000000000000000, -0.0000000000000000000, 2.449293598294706900E-016 ) ) ;
#11 = CARTESIAN_POINT ( 'NONE',  ( 0.2500000000000000000, 0.06250000000000000000, 6.123233995736767300E-017 ) ) ;
#12 = LINE ( 'NONE', #11, #147 ) ;
#13 = DIRECTION ( 'NONE',  ( -0.0000000000000000000, -1.000000000000000000, -0.0000000000000000000 ) ) ;
#14 = DIRECTION ( 'NONE',  ( 1.000000000000000000, -0.0000000000000000000, 2.449293598294706900E-016 ) ) ;
#15 = CARTESIAN_POINT ( 'NONE',  ( 0.2500000000000000000, 0.0000000000000000000, 6.123233995736767300E-017 ) ) ;
#16 = LINE ( 'NONE', #15, #148 ) ;
#17 = DIRECTION ( 'NONE',  ( -0.0000000000000000000, -0.0000000000000000000, 1.000000000000000000 ) ) ;
#18 = CARTESIAN_POINT ( 'NONE',  ( 0.0000000000000000000, 0.06250000000000000000, 0.0000000000000000000 ) ) ;
#19 = LINE ( 'NONE', #18, #149 ) ;
#20 = PLANE ( 'NONE',  #143 ) ;
#21 = DIRECTION ( 'NONE',  ( -0.0000000000000000000, -0.0000000000000000000, 1.000000000000000000 ) ) ;
#22 = CARTESIAN_POINT ( 'NONE',  ( 0.0000000000000000000, 0.0000000000000000000, 0.0000000000000000000 ) ) ;
#23 = LINE ( 'NONE', #22, #150 ) ;
#24 = DIRECTION ( 'NONE',  ( -1.000000000000000000, 0.0000000000000000000, -2.449293598294706900E-016 ) ) ;
#25 = DIRECTION ( 'NONE',  ( 2.449293598294706900E-016, 0.0000000000000000000, -1.000000000000000000 ) ) ;
#26 = CARTESIAN_POINT ( 'NONE',  ( 0.2500000000000000000, 0.06250000000000000000, 6.123233995736767300E-017 ) ) ;
#27 = PLANE ( 'NONE',  #151 ) ;
#28 = DIRECTION ( 'NONE',  ( 1.365923996832131600E-016, 0.0000000000000000000, 1.000000000000000000 ) ) ;
#29 = DIRECTION ( 'NONE',  ( -1.000000000000000000, 0.0000000000000000000, 1.365923996832131600E-016 ) ) ;
#30 = CARTESIAN_POINT ( 'NONE',  ( 0.2499999999999998900, 0.06250000000000000000, -0.7500000000000001100 ) ) ;
#31 = PLANE ( 'NONE',  #153 ) ;
#32 = DIRECTION ( 'NONE',  ( 1.000000000000000000, 0.0000000000000000000, -0.0000000000000000000 ) ) ;
#33 = DIRECTION ( 'NONE',  ( 0.0000000000000000000, 0.0000000000000000000, 1.000000000000000000 ) ) ;
#34 = CARTESIAN_POINT ( 'NONE',  ( 0.0000000000000000000, 0.06250000000000000000, -0.7500000000000001100 ) ) ;
#35 = PLANE ( 'NONE',  #155 ) ;
#36 = DIRECTION ( 'NONE',  ( 0.0000000000000000000, 0.0000000000000000000, -1.000000000000000000 ) ) ;
#37 = DIRECTION ( 'NONE',  ( 1.000000000000000000, -0.0000000000000000000, 0.0000000000000000000 ) ) ;
#38 = CARTESIAN_POINT ( 'NONE',  ( 0.0000000000000000000, 0.06250000000000000000, 0.0000000000000000000 ) ) ;
#39 = PLANE ( 'NONE',  #163 ) ;
#40 = DIRECTION ( 'NONE',  ( 0.0000000000000000000, 0.0000000000000000000, -1.000000000000000000 ) ) ;
#41 = DIRECTION ( 'NONE',  ( 0.0000000000000000000, -1.000000000000000000, 0.0000000000000000000 ) ) ;
#42 = CARTESIAN_POINT ( 'NONE',  ( 0.0000000000000000000, 0.0000000000000000000, 0.0000000000000000000 ) ) ;
#43 = DIRECTION ( 'NONE',  ( -1.000000000000000000, -0.0000000000000000000, -0.0000000000000000000 ) ) ;
#44 = CARTESIAN_POINT ( 'NONE',  ( 0.0000000000000000000, 0.06250000000000000000, -0.7500000000000001100 ) ) ;
#45 = LINE ( 'NONE', #44, #158 ) ;
#46 = DIRECTION ( 'NONE',  ( -1.000000000000000000, -0.0000000000000000000, -0.0000000000000000000 ) ) ;
#47 = CARTESIAN_POINT ( 'NONE',  ( 0.0000000000000000000, 0.0000000000000000000, -0.7500000000000001100 ) ) ;
#48 = LINE ( 'NONE', #47, #164 ) ;
#49 = DIRECTION ( 'NONE',  ( -0.0000000000000000000, -1.000000000000000000, -0.0000000000000000000 ) ) ;
#50 = CARTESIAN_POINT ( 'NONE',  ( 0.0000000000000000000, 0.06250000000000000000, -0.7500000000000001100 ) ) ;
#51 = LINE ( 'NONE', #50, #161 ) ;
#52 = DIRECTION ( 'NONE',  ( -1.365923996832131600E-016, -0.0000000000000000000, -1.000000000000000000 ) ) ;
#53 = CARTESIAN_POINT ( 'NONE',  ( 0.2499999999999998900, 0.06250000000000000000, -0.7500000000000001100 ) ) ;
#54 = LINE ( 'NONE', #53, #160 ) ;
#55 = DIRECTION ( 'NONE',  ( -1.365923996832131600E-016, -0.0000000000000000000, -1.000000000000000000 ) ) ;
#56 = CARTESIAN_POINT ( 'NONE',  ( 0.2499999999999998900, 0.0000000000000000000, -0.7500000000000001100 ) ) ;
#57 = LINE ( 'NONE', #56, #166 ) ;
#58 = PLANE ( 'NONE',  #159 ) ;
#59 = DIRECTION ( 'NONE',  ( -0.0000000000000000000, -1.000000000000000000, -0.0000000000000000000 ) ) ;
#60 = CARTESIAN_POINT ( 'NONE',  ( 0.2500000000000000000, 0.06250000000000000000, 6.123233995736767300E-017 ) ) ;
#61 = LINE ( 'NONE', #60, #165 ) ;
#62 = CARTESIAN_POINT ( 'NONE',  ( 0.0000000000000000000, 0.0000000000000000000, 0.0000000000000000000 ) ) ;
#63 = CARTESIAN_POINT ( 'NONE',  ( 0.0000000000000000000, 0.06250000000000000000, -0.7500000000000001100 ) ) ;
#64 = CARTESIAN_POINT ( 'NONE',  ( 0.0000000000000000000, 0.06250000000000000000, 0.0000000000000000000 ) ) ;
#65 = CARTESIAN_POINT ( 'NONE',  ( 0.2500000000000000000, 0.06250000000000000000, 6.123233995736767300E-017 ) ) ;
#66 = CARTESIAN_POINT ( 'NONE',  ( 0.2499999999999998900, 0.0000000000000000000, -0.7500000000000001100 ) ) ;
#67 = CARTESIAN_POINT ( 'NONE',  ( 0.2500000000000000000, 0.0000000000000000000, 6.123233995736767300E-017 ) ) ;
#68 = CARTESIAN_POINT ( 'NONE',  ( 0.2499999999999998900, 0.06250000000000000000, -0.7500000000000001100 ) ) ;
#69 = CARTESIAN_POINT ( 'NONE',  ( 0.0000000000000000000, 0.0000000000000000000, -0.7500000000000001100 ) ) ;
#70 = VERTEX_POINT ( 'NONE', #69 ) ;
#71 = VERTEX_POINT ( 'NONE', #68 ) ;
#72 = VERTEX_POINT ( 'NONE', #67 ) ;
#73 = VERTEX_POINT ( 'NONE', #66 ) ;
#74 = VERTEX_POINT ( 'NONE', #65 ) ;
#75 = VERTEX_POINT ( 'NONE', #64 ) ;
#76 = VERTEX_POINT ( 'NONE', #63 ) ;
#77 = VERTEX_POINT ( 'NONE', #62 ) ;
#78 = ORIENTED_EDGE ( 'NONE', *, *, #114, .T. ) ;
#79 = ORIENTED_EDGE ( 'NONE', *, *, #128, .T. ) ;
#80 = ORIENTED_EDGE ( 'NONE', *, *, #112, .F. ) ;
#81 = ORIENTED_EDGE ( 'NONE', *, *, #127, .F. ) ;
#82 = ORIENTED_EDGE ( 'NONE', *, *, #126, .T. ) ;
#83 = ORIENTED_EDGE ( 'NONE', *, *, #117, .F. ) ;
#84 = ORIENTED_EDGE ( 'NONE', *, *, #124, .F. ) ;
#85 = ORIENTED_EDGE ( 'NONE', *, *, #126, .F. ) ;
#86 = ORIENTED_EDGE ( 'NONE', *, *, #114, .F. ) ;
#87 = ORIENTED_EDGE ( 'NONE', *, *, #118, .T. ) ;
#88 = ORIENTED_EDGE ( 'NONE', *, *, #115, .T. ) ;
#89 = ORIENTED_EDGE ( 'NONE', *, *, #127, .T. ) ;
#90 = ORIENTED_EDGE ( 'NONE', *, *, #116, .T. ) ;
#91 = ORIENTED_EDGE ( 'NONE', *, *, #125, .T. ) ;
#92 = ORIENTED_EDGE ( 'NONE', *, *, #128, .F. ) ;
#93 = ORIENTED_EDGE ( 'NONE', *, *, #124, .T. ) ;
#94 = ORIENTED_EDGE ( 'NONE', *, *, #125, .F. ) ;
#95 = ORIENTED_EDGE ( 'NONE', *, *, #129, .T. ) ;
#96 = ORIENTED_EDGE ( 'NONE', *, *, #116, .F. ) ;
#97 = ORIENTED_EDGE ( 'NONE', *, *, #118, .F. ) ;
#98 = ORIENTED_EDGE ( 'NONE', *, *, #117, .T. ) ;
#99 = ORIENTED_EDGE ( 'NONE', *, *, #112, .T. ) ;
#100 = ORIENTED_EDGE ( 'NONE', *, *, #129, .F. ) ;
#101 = ORIENTED_EDGE ( 'NONE', *, *, #115, .F. ) ;
#102 = EDGE_LOOP ( 'NONE', ( #78, #100, #101, #99 ) ) ;
#103 = EDGE_LOOP ( 'NONE', ( #85, #84, #83, #86 ) ) ;
#104 = EDGE_LOOP ( 'NONE', ( #98, #96, #97, #95 ) ) ;
#105 = EDGE_LOOP ( 'NONE', ( #82, #80, #81, #79 ) ) ;
#106 = EDGE_LOOP ( 'NONE', ( #93, #92, #94, #90 ) ) ;
#107 = EDGE_LOOP ( 'NONE', ( #89, #88, #87, #91 ) ) ;
#108 = DIMENSIONAL_EXPONENTS ( 1.000000000000000000, 0.0000000000000000000, 0.0000000000000000000, 0.0000000000000000000, 0.0000000000000000000, 0.0000000000000000000, 0.0000000000000000000 ) ;
#109 = PRODUCT ( 'P063BF', 'P063BF', '', ( #189 ) ) ;
#110 = DIMENSIONAL_EXPONENTS ( 1.000000000000000000, 0.0000000000000000000, 0.0000000000000000000, 0.0000000000000000000, 0.0000000000000000000, 0.0000000000000000000, 0.0000000000000000000 ) ;
#111 = DIMENSIONAL_EXPONENTS ( 1.000000000000000000, 0.0000000000000000000, 0.0000000000000000000, 0.0000000000000000000, 0.0000000000000000000, 0.0000000000000000000, 0.0000000000000000000 ) ;
#112 = EDGE_CURVE ( 'NONE', #74, #72, #61, .T. ) ;
#113 = PRODUCT_DEFINITION ( 'UNKNOWN', '', #133, #208 ) ;
#114 = EDGE_CURVE ( 'NONE', #72, #73, #57, .T. ) ;
#115 = EDGE_CURVE ( 'NONE', #74, #71, #54, .T. ) ;
#116 = EDGE_CURVE ( 'NONE', #76, #70, #51, .T. ) ;
#117 = EDGE_CURVE ( 'NONE', #73, #70, #48, .T. ) ;
#118 = EDGE_CURVE ( 'NONE', #71, #76, #45, .T. ) ;
#119 = ADVANCED_FACE ( 'NONE', ( #167 ), #58, .T. ) ;
#120 = ADVANCED_FACE ( 'NONE', ( #132 ), #39, .F. ) ;
#121 = ADVANCED_FACE ( 'NONE', ( #157 ), #35, .F. ) ;
#122 = ADVANCED_FACE ( 'NONE', ( #156 ), #31, .F. ) ;
#123 = ADVANCED_FACE ( 'NONE', ( #152 ), #27, .F. ) ;
#124 = EDGE_CURVE ( 'NONE', #70, #77, #23, .T. ) ;
#125 = EDGE_CURVE ( 'NONE', #76, #75, #19, .T. ) ;
#126 = EDGE_CURVE ( 'NONE', #77, #72, #16, .T. ) ;
#127 = EDGE_CURVE ( 'NONE', #75, #74, #12, .T. ) ;
#128 = EDGE_CURVE ( 'NONE', #75, #77, #9, .T. ) ;
#129 = EDGE_CURVE ( 'NONE', #71, #73, #6, .T. ) ;
#130 = COLOUR_RGB ( '',0.5686274509803921400, 0.5686274509803921400, 0.5882352941176470800 ) ;
#131 = COLOUR_RGB ( '',0.5686274509803921400, 0.5686274509803921400, 0.5882352941176470800 ) ;
#132 = FACE_OUTER_BOUND ( 'NONE', #106, .T. ) ;
#133 = PRODUCT_DEFINITION_FORMATION_WITH_SPECIFIED_SOURCE ( 'ANY', '', #109, .NOT_KNOWN. ) ;
#134 = AXIS2_PLACEMENT_3D ( 'NONE', #175, #174, #171 ) ;
#135 = LENGTH_MEASURE_WITH_UNIT ( LENGTH_MEASURE( 0.02539999999999999900 ), #182 );
#136 = MECHANICAL_DESIGN_GEOMETRIC_PRESENTATION_REPRESENTATION (  '', ( #138 ), #205 ) ;
#137 = PRESENTATION_LAYER_ASSIGNMENT (  '', '', ( #138 ) ) ;
#138 = STYLED_ITEM ( 'NONE', ( #180 ), #2 ) ;
#139 = LENGTH_MEASURE_WITH_UNIT ( LENGTH_MEASURE( 0.02539999999999999900 ), #196 );
#140 = LENGTH_MEASURE_WITH_UNIT ( LENGTH_MEASURE( 0.02539999999999999900 ), #201 );
#141 = MECHANICAL_DESIGN_GEOMETRIC_PRESENTATION_REPRESENTATION (  '', ( #145 ), #203 ) ;
#142 = PRESENTATION_LAYER_ASSIGNMENT (  '', '', ( #145 ) ) ;
#143 = AXIS2_PLACEMENT_3D ( 'NONE', #173, #172, #169 ) ;
#144 = VECTOR ( 'NONE', #13, 39.37007874015748100 ) ;
#145 = STYLED_ITEM ( 'NONE', ( #184 ), #209 ) ;
#146 = VECTOR ( 'NONE', #7, 39.37007874015748100 ) ;
#147 = VECTOR ( 'NONE', #10, 39.37007874015748100 ) ;
#148 = VECTOR ( 'NONE', #14, 39.37007874015748100 ) ;
#149 = VECTOR ( 'NONE', #17, 39.37007874015748100 ) ;
#150 = VECTOR ( 'NONE', #21, 39.37007874015748100 ) ;
#151 = AXIS2_PLACEMENT_3D ( 'NONE', #26, #25, #24 ) ;
#152 = FACE_OUTER_BOUND ( 'NONE', #105, .T. ) ;
#153 = AXIS2_PLACEMENT_3D ( 'NONE', #30, #29, #28 ) ;
#154 = FACE_OUTER_BOUND ( 'NONE', #107, .T. ) ;
#155 = AXIS2_PLACEMENT_3D ( 'NONE', #34, #33, #32 ) ;
#156 = FACE_OUTER_BOUND ( 'NONE', #102, .T. ) ;
#157 = FACE_OUTER_BOUND ( 'NONE', #104, .T. ) ;
#158 = VECTOR ( 'NONE', #43, 39.37007874015748100 ) ;
#159 = AXIS2_PLACEMENT_3D ( 'NONE', #42, #41, #40 ) ;
#160 = VECTOR ( 'NONE', #52, 39.37007874015748100 ) ;
#161 = VECTOR ( 'NONE', #49, 39.37007874015748100 ) ;
#162 = CLOSED_SHELL ( 'NONE', ( #123, #122, #121, #120, #206, #119 ) ) ;
#163 = AXIS2_PLACEMENT_3D ( 'NONE', #38, #37, #36 ) ;
#164 = VECTOR ( 'NONE', #46, 39.37007874015748100 ) ;
#165 = VECTOR ( 'NONE', #59, 39.37007874015748100 ) ;
#166 = VECTOR ( 'NONE', #55, 39.37007874015748100 ) ;
#167 = FACE_OUTER_BOUND ( 'NONE', #103, .T. ) ;
#168 =( NAMED_UNIT ( * ) PLANE_ANGLE_UNIT ( ) SI_UNIT ( $, .RADIAN. ) );
#169 = DIRECTION ( 'NONE',  ( 0.0000000000000000000, 0.0000000000000000000, -1.000000000000000000 ) ) ;
#170 = SHAPE_DEFINITION_REPRESENTATION ( #207, #2 ) ;
#171 = DIRECTION ( 'NONE',  ( 1.000000000000000000, 0.0000000000000000000, 0.0000000000000000000 ) ) ;
#172 = DIRECTION ( 'NONE',  ( 0.0000000000000000000, -1.000000000000000000, 0.0000000000000000000 ) ) ;
#173 = CARTESIAN_POINT ( 'NONE',  ( 0.0000000000000000000, 0.06250000000000000000, 0.0000000000000000000 ) ) ;
#174 = DIRECTION ( 'NONE',  ( 0.0000000000000000000, 0.0000000000000000000, 1.000000000000000000 ) ) ;
#175 = CARTESIAN_POINT ( 'NONE',  ( 0.0000000000000000000, 0.0000000000000000000, 0.0000000000000000000 ) ) ;
#176 =( NAMED_UNIT ( * ) SI_UNIT ( $, .STERADIAN. ) SOLID_ANGLE_UNIT ( ) );
#177 =( CONVERSION_BASED_UNIT ( 'INCH', #135 ) LENGTH_UNIT ( ) NAMED_UNIT ( #111 ) );
#178 = SURFACE_STYLE_USAGE ( .BOTH. , #181 ) ;
#179 = APPLICATION_PROTOCOL_DEFINITION ( 'draft international standard', 'automotive_design', 1998, #210 ) ;
#180 = PRESENTATION_STYLE_ASSIGNMENT (( #178 ) ) ;
#181 = SURFACE_SIDE_STYLE ('',( #185 ) ) ;
#182 =( LENGTH_UNIT ( ) NAMED_UNIT ( * ) SI_UNIT ( $, .METRE. ) );
#183 =( NAMED_UNIT ( * ) SI_UNIT ( $, .STERADIAN. ) SOLID_ANGLE_UNIT ( ) );
#184 = PRESENTATION_STYLE_ASSIGNMENT (( #192 ) ) ;
#185 = SURFACE_STYLE_FILL_AREA ( #186 ) ;
#186 = FILL_AREA_STYLE ('',( #187 ) ) ;
#187 = FILL_AREA_STYLE_COLOUR ( '', #131 ) ;
#188 = APPLICATION_PROTOCOL_DEFINITION ( 'draft international standard', 'automotive_design', 1998, #211 ) ;
#189 = PRODUCT_CONTEXT ( 'NONE', #211, 'mechanical' ) ;
#190 = FILL_AREA_STYLE_COLOUR ( '', #130 ) ;
#191 = SURFACE_STYLE_FILL_AREA ( #193 ) ;
#192 = SURFACE_STYLE_USAGE ( .BOTH. , #195 ) ;
#193 = FILL_AREA_STYLE ('',( #190 ) ) ;
#194 =( NAMED_UNIT ( * ) SI_UNIT ( $, .STERADIAN. ) SOLID_ANGLE_UNIT ( ) );
#195 = SURFACE_SIDE_STYLE ('',( #191 ) ) ;
#196 =( LENGTH_UNIT ( ) NAMED_UNIT ( * ) SI_UNIT ( $, .METRE. ) );
#197 =( NAMED_UNIT ( * ) PLANE_ANGLE_UNIT ( ) SI_UNIT ( $, .RADIAN. ) );
#198 =( CONVERSION_BASED_UNIT ( 'INCH', #139 ) LENGTH_UNIT ( ) NAMED_UNIT ( #110 ) );
#199 =( NAMED_UNIT ( * ) PLANE_ANGLE_UNIT ( ) SI_UNIT ( $, .RADIAN. ) );
#200 =( CONVERSION_BASED_UNIT ( 'INCH', #140 ) LENGTH_UNIT ( ) NAMED_UNIT ( #108 ) );
#201 =( LENGTH_UNIT ( ) NAMED_UNIT ( * ) SI_UNIT ( $, .METRE. ) );
#202 = PRODUCT_RELATED_PRODUCT_CATEGORY ( 'part', '', ( #109 ) ) ;
#203 =( GEOMETRIC_REPRESENTATION_CONTEXT ( 3 ) GLOBAL_UNCERTAINTY_ASSIGNED_CONTEXT ( ( #4 ) ) GLOBAL_UNIT_ASSIGNED_CONTEXT ( ( #200, #199, #183 ) ) REPRESENTATION_CONTEXT ( 'NONE', 'WORKASPACE' ) );
#204 =( GEOMETRIC_REPRESENTATION_CONTEXT ( 3 ) GLOBAL_UNCERTAINTY_ASSIGNED_CONTEXT ( ( #3 ) ) GLOBAL_UNIT_ASSIGNED_CONTEXT ( ( #198, #197, #194 ) ) REPRESENTATION_CONTEXT ( 'NONE', 'WORKASPACE' ) );
#205 =( GEOMETRIC_REPRESENTATION_CONTEXT ( 3 ) GLOBAL_UNCERTAINTY_ASSIGNED_CONTEXT ( ( #1 ) ) GLOBAL_UNIT_ASSIGNED_CONTEXT ( ( #177, #168, #176 ) ) REPRESENTATION_CONTEXT ( 'NONE', 'WORKASPACE' ) );
#206 = ADVANCED_FACE ( 'NONE', ( #154 ), #20, .F. ) ;
#207 = PRODUCT_DEFINITION_SHAPE ( 'NONE', 'NONE',  #113 ) ;
#208 = PRODUCT_DEFINITION_CONTEXT ( 'detailed design', #210, 'design' ) ;
#209 = MANIFOLD_SOLID_BREP ( 'Boss-Extrude1', #162 ) ;
#210 = APPLICATION_CONTEXT ( 'automotive_design' ) ;
#211 = APPLICATION_CONTEXT ( 'automotive_design' ) ;
ENDSEC;
END-ISO-10303-21;
