ISO-10303-21;
HEADER;
FILE_DESCRIPTION (( 'STEP AP214' ),
    '1' );
FILE_NAME ('P063CF.step',
    '2012-04-20T20:59:59',
    ( '' ),
    ( '' ),
    'SwSTEP 2.0',
    'SolidWorks 2012',
    '' );
FILE_SCHEMA (( 'AUTOMOTIVE_DESIGN' ));
ENDSEC;

DATA;
#1 = CARTESIAN_POINT ( 'NONE',  ( 0.0000000000000000000, 0.06250000000000000000, -0.7500000000000001100 ) ) ;
#2 = LINE ( 'NONE', #1, #176 ) ;
#3 = DIRECTION ( 'NONE',  ( -9.106159978880878600E-017, -0.0000000000000000000, -1.000000000000000000 ) ) ;
#4 = CARTESIAN_POINT ( 'NONE',  ( 0.3749999999999999400, 0.06250000000000000000, -0.7500000000000001100 ) ) ;
#5 = LINE ( 'NONE', #4, #172 ) ;
#6 = DIRECTION ( 'NONE',  ( -0.0000000000000000000, -1.000000000000000000, -0.0000000000000000000 ) ) ;
#7 = CARTESIAN_POINT ( 'NONE',  ( 0.3749999999999999400, 0.06250000000000000000, -0.7500000000000001100 ) ) ;
#8 = LINE ( 'NONE', #7, #185 ) ;
#9 = DIRECTION ( 'NONE',  ( -0.0000000000000000000, -1.000000000000000000, -0.0000000000000000000 ) ) ;
#10 = CARTESIAN_POINT ( 'NONE',  ( 0.0000000000000000000, 0.06250000000000000000, 0.0000000000000000000 ) ) ;
#11 = EDGE_LOOP ( 'NONE', ( #72, #71, #70, #74 ) ) ;
#12 = EDGE_LOOP ( 'NONE', ( #93, #92, #84, #91 ) ) ;
#13 = EDGE_LOOP ( 'NONE', ( #68, #67, #66, #69 ) ) ;
#14 = LINE ( 'NONE', #10, #184 ) ;
#15 = DIRECTION ( 'NONE',  ( 1.000000000000000000, -0.0000000000000000000, -4.082155997157843800E-017 ) ) ;
#16 = CARTESIAN_POINT ( 'NONE',  ( 0.3750000000000000600, 0.06250000000000000000, -1.530808498934191500E-017 ) ) ;
#17 = LINE ( 'NONE', #16, #192 ) ;
#18 = DIRECTION ( 'NONE',  ( 1.000000000000000000, -0.0000000000000000000, -4.082155997157843800E-017 ) ) ;
#19 = CARTESIAN_POINT ( 'NONE',  ( 0.3750000000000000600, 0.0000000000000000000, -1.530808498934191500E-017 ) ) ;
#20 = LINE ( 'NONE', #19, #190 ) ;
#21 = CARTESIAN_POINT ( 'NONE',  ( 0.0000000000000000000, 0.06250000000000000000, 0.0000000000000000000 ) ) ;
#22 = LINE ( 'NONE', #21, #179 ) ;
#23 = DIRECTION ( 'NONE',  ( -0.0000000000000000000, -0.0000000000000000000, 1.000000000000000000 ) ) ;
#24 = DIRECTION ( 'NONE',  ( -0.0000000000000000000, -0.0000000000000000000, 1.000000000000000000 ) ) ;
#25 = CARTESIAN_POINT ( 'NONE',  ( 0.0000000000000000000, 0.0000000000000000000, 0.0000000000000000000 ) ) ;
#26 = LINE ( 'NONE', #25, #193 ) ;
#27 = LINE ( 'NONE', #160, #173 ) ;
#28 = DIRECTION ( 'NONE',  ( -0.0000000000000000000, -1.000000000000000000, -0.0000000000000000000 ) ) ;
#29 = CARTESIAN_POINT ( 'NONE',  ( 0.3750000000000000600, 0.06250000000000000000, -1.530808498934191500E-017 ) ) ;
#30 = LINE ( 'NONE', #29, #175 ) ;
#31 = DIRECTION ( 'NONE',  ( -1.000000000000000000, 0.0000000000000000000, 4.082155997157843800E-017 ) ) ;
#32 = DIRECTION ( 'NONE',  ( -4.082155997157843800E-017, 0.0000000000000000000, -1.000000000000000000 ) ) ;
#33 = CARTESIAN_POINT ( 'NONE',  ( 0.3750000000000000600, 0.06250000000000000000, -1.530808498934191500E-017 ) ) ;
#34 = PLANE ( 'NONE',  #129 ) ;
#35 = DIRECTION ( 'NONE',  ( 9.106159978880877400E-017, 0.0000000000000000000, 1.000000000000000000 ) ) ;
#36 = DIRECTION ( 'NONE',  ( -1.000000000000000000, 0.0000000000000000000, 9.106159978880877400E-017 ) ) ;
#37 = CARTESIAN_POINT ( 'NONE',  ( 0.3749999999999999400, 0.06250000000000000000, -0.7500000000000001100 ) ) ;
#38 = PLANE ( 'NONE',  #187 ) ;
#39 = DIRECTION ( 'NONE',  ( 1.000000000000000000, 0.0000000000000000000, -0.0000000000000000000 ) ) ;
#40 = DIRECTION ( 'NONE',  ( 0.0000000000000000000, 0.0000000000000000000, 1.000000000000000000 ) ) ;
#41 = CARTESIAN_POINT ( 'NONE',  ( 0.0000000000000000000, 0.06250000000000000000, -0.7500000000000001100 ) ) ;
#42 = PLANE ( 'NONE',  #124 ) ;
#43 = DIRECTION ( 'NONE',  ( 0.0000000000000000000, 0.0000000000000000000, -1.000000000000000000 ) ) ;
#44 = DIRECTION ( 'NONE',  ( 1.000000000000000000, -0.0000000000000000000, 0.0000000000000000000 ) ) ;
#45 = CARTESIAN_POINT ( 'NONE',  ( 0.0000000000000000000, 0.06250000000000000000, 0.0000000000000000000 ) ) ;
#46 = PLANE ( 'NONE',  #126 ) ;
#47 = DIRECTION ( 'NONE',  ( 0.0000000000000000000, 0.0000000000000000000, -1.000000000000000000 ) ) ;
#48 = DIRECTION ( 'NONE',  ( 0.0000000000000000000, -1.000000000000000000, -0.0000000000000000000 ) ) ;
#49 = CARTESIAN_POINT ( 'NONE',  ( 0.0000000000000000000, 0.06250000000000000000, 0.0000000000000000000 ) ) ;
#50 = PLANE ( 'NONE',  #125 ) ;
#51 = DIRECTION ( 'NONE',  ( 0.0000000000000000000, 0.0000000000000000000, -1.000000000000000000 ) ) ;
#52 = DIRECTION ( 'NONE',  ( 0.0000000000000000000, -1.000000000000000000, -0.0000000000000000000 ) ) ;
#53 = CARTESIAN_POINT ( 'NONE',  ( 0.0000000000000000000, 0.0000000000000000000, 0.0000000000000000000 ) ) ;
#54 = PLANE ( 'NONE',  #131 ) ;
#55 = DIRECTION ( 'NONE',  ( -9.106159978880878600E-017, -0.0000000000000000000, -1.000000000000000000 ) ) ;
#56 = CARTESIAN_POINT ( 'NONE',  ( 0.3749999999999999400, 0.0000000000000000000, -0.7500000000000001100 ) ) ;
#57 = LINE ( 'NONE', #56, #130 ) ;
#58 = CARTESIAN_POINT ( 'NONE',  ( 0.0000000000000000000, 0.06250000000000000000, 0.0000000000000000000 ) ) ;
#59 = CARTESIAN_POINT ( 'NONE',  ( 0.3750000000000000600, 0.0000000000000000000, -1.530808498934191500E-017 ) ) ;
#60 = CARTESIAN_POINT ( 'NONE',  ( 0.0000000000000000000, 0.0000000000000000000, -0.7500000000000001100 ) ) ;
#61 = CARTESIAN_POINT ( 'NONE',  ( 0.3749999999999999400, 0.06250000000000000000, -0.7500000000000001100 ) ) ;
#62 = CARTESIAN_POINT ( 'NONE',  ( 0.0000000000000000000, 0.06250000000000000000, -0.7500000000000001100 ) ) ;
#63 = CARTESIAN_POINT ( 'NONE',  ( 0.3749999999999999400, 0.0000000000000000000, -0.7500000000000001100 ) ) ;
#64 = CARTESIAN_POINT ( 'NONE',  ( 0.0000000000000000000, 0.0000000000000000000, 0.0000000000000000000 ) ) ;
#65 = CARTESIAN_POINT ( 'NONE',  ( 0.3750000000000000600, 0.06250000000000000000, -1.530808498934191500E-017 ) ) ;
#66 = ORIENTED_EDGE ( 'NONE', *, *, #206, .F. ) ;
#67 = ORIENTED_EDGE ( 'NONE', *, *, #113, .F. ) ;
#68 = ORIENTED_EDGE ( 'NONE', *, *, #199, .F. ) ;
#69 = ORIENTED_EDGE ( 'NONE', *, *, #105, .F. ) ;
#70 = ORIENTED_EDGE ( 'NONE', *, *, #211, .T. ) ;
#71 = ORIENTED_EDGE ( 'NONE', *, *, #204, .T. ) ;
#72 = ORIENTED_EDGE ( 'NONE', *, *, #201, .T. ) ;
#73 = ORIENTED_EDGE ( 'NONE', *, *, #205, .T. ) ;
#74 = ORIENTED_EDGE ( 'NONE', *, *, #114, .T. ) ;
#75 = ORIENTED_EDGE ( 'NONE', *, *, #202, .F. ) ;
#76 = VERTEX_POINT ( 'NONE', #65 ) ;
#77 = VERTEX_POINT ( 'NONE', #64 ) ;
#78 = VERTEX_POINT ( 'NONE', #63 ) ;
#79 = VERTEX_POINT ( 'NONE', #62 ) ;
#80 = VERTEX_POINT ( 'NONE', #61 ) ;
#81 = VERTEX_POINT ( 'NONE', #60 ) ;
#82 = VERTEX_POINT ( 'NONE', #59 ) ;
#83 = VERTEX_POINT ( 'NONE', #58 ) ;
#84 = ORIENTED_EDGE ( 'NONE', *, *, #204, .F. ) ;
#85 = ORIENTED_EDGE ( 'NONE', *, *, #113, .T. ) ;
#86 = ORIENTED_EDGE ( 'NONE', *, *, #114, .F. ) ;
#87 = ORIENTED_EDGE ( 'NONE', *, *, #203, .T. ) ;
#88 = ORIENTED_EDGE ( 'NONE', *, *, #205, .F. ) ;
#89 = ORIENTED_EDGE ( 'NONE', *, *, #211, .F. ) ;
#90 = ORIENTED_EDGE ( 'NONE', *, *, #206, .T. ) ;
#91 = ORIENTED_EDGE ( 'NONE', *, *, #112, .T. ) ;
#92 = ORIENTED_EDGE ( 'NONE', *, *, #203, .F. ) ;
#93 = ORIENTED_EDGE ( 'NONE', *, *, #105, .T. ) ;
#94 = ORIENTED_EDGE ( 'NONE', *, *, #202, .T. ) ;
#95 = ORIENTED_EDGE ( 'NONE', *, *, #112, .F. ) ;
#96 = ORIENTED_EDGE ( 'NONE', *, *, #201, .F. ) ;
#97 = ORIENTED_EDGE ( 'NONE', *, *, #199, .T. ) ;
#98 = EDGE_LOOP ( 'NONE', ( #90, #88, #89, #87 ) ) ;
#99 = EDGE_LOOP ( 'NONE', ( #97, #95, #96, #94 ) ) ;
#100 = EDGE_LOOP ( 'NONE', ( #85, #75, #86, #73 ) ) ;
#101 = DIMENSIONAL_EXPONENTS ( 1.000000000000000000, 0.0000000000000000000, 0.0000000000000000000, 0.0000000000000000000, 0.0000000000000000000, 0.0000000000000000000, 0.0000000000000000000 ) ;
#102 = DIMENSIONAL_EXPONENTS ( 1.000000000000000000, 0.0000000000000000000, 0.0000000000000000000, 0.0000000000000000000, 0.0000000000000000000, 0.0000000000000000000, 0.0000000000000000000 ) ;
#103 = DIMENSIONAL_EXPONENTS ( 1.000000000000000000, 0.0000000000000000000, 0.0000000000000000000, 0.0000000000000000000, 0.0000000000000000000, 0.0000000000000000000, 0.0000000000000000000 ) ;
#104 = PRODUCT ( 'P063CF', 'P063CF', '', ( #151 ) ) ;
#105 = EDGE_CURVE ( 'NONE', #82, #78, #57, .T. ) ;
#106 = ADVANCED_FACE ( 'NONE', ( #127 ), #54, .T. ) ;
#107 = ADVANCED_FACE ( 'NONE', ( #132 ), #50, .F. ) ;
#108 = ADVANCED_FACE ( 'NONE', ( #128 ), #46, .F. ) ;
#109 = ADVANCED_FACE ( 'NONE', ( #123 ), #42, .F. ) ;
#110 = ADVANCED_FACE ( 'NONE', ( #121 ), #38, .F. ) ;
#111 = ADVANCED_FACE ( 'NONE', ( #183 ), #34, .F. ) ;
#112 = EDGE_CURVE ( 'NONE', #76, #82, #30, .T. ) ;
#113 = EDGE_CURVE ( 'NONE', #81, #77, #26, .T. ) ;
#114 = EDGE_CURVE ( 'NONE', #79, #83, #22, .T. ) ;
#115 = COLOUR_RGB ( '',0.5686274509803921400, 0.5686274509803921400, 0.5882352941176470800 ) ;
#116 = COLOUR_RGB ( '',0.5686274509803921400, 0.5686274509803921400, 0.5882352941176470800 ) ;
#117 = ADVANCED_BREP_SHAPE_REPRESENTATION ( 'P063CF', ( #210, #182 ), #208 ) ;
#118 = UNCERTAINTY_MEASURE_WITH_UNIT (LENGTH_MEASURE( 1.000000000000000100E-005 ), #140, 'distance_accuracy_value', 'NONE');
#119 = UNCERTAINTY_MEASURE_WITH_UNIT (LENGTH_MEASURE( 1.000000000000000100E-005 ), #158, 'distance_accuracy_value', 'NONE');
#120 = UNCERTAINTY_MEASURE_WITH_UNIT (LENGTH_MEASURE( 1.000000000000000100E-005 ), #164, 'distance_accuracy_value', 'NONE');
#121 = FACE_OUTER_BOUND ( 'NONE', #12, .T. ) ;
#122 = CLOSED_SHELL ( 'NONE', ( #111, #110, #109, #108, #107, #106 ) ) ;
#123 = FACE_OUTER_BOUND ( 'NONE', #98, .T. ) ;
#124 = AXIS2_PLACEMENT_3D ( 'NONE', #41, #40, #39 ) ;
#125 = AXIS2_PLACEMENT_3D ( 'NONE', #49, #48, #47 ) ;
#126 = AXIS2_PLACEMENT_3D ( 'NONE', #45, #44, #43 ) ;
#127 = FACE_OUTER_BOUND ( 'NONE', #13, .T. ) ;
#128 = FACE_OUTER_BOUND ( 'NONE', #100, .T. ) ;
#129 = AXIS2_PLACEMENT_3D ( 'NONE', #33, #32, #31 ) ;
#130 = VECTOR ( 'NONE', #55, 39.37007874015748100 ) ;
#131 = AXIS2_PLACEMENT_3D ( 'NONE', #53, #52, #51 ) ;
#132 = FACE_OUTER_BOUND ( 'NONE', #11, .T. ) ;
#133 = SHAPE_DEFINITION_REPRESENTATION ( #171, #117 ) ;
#134 = DIRECTION ( 'NONE',  ( 1.000000000000000000, 0.0000000000000000000, 0.0000000000000000000 ) ) ;
#135 = DIRECTION ( 'NONE',  ( 0.0000000000000000000, 0.0000000000000000000, 1.000000000000000000 ) ) ;
#136 = CARTESIAN_POINT ( 'NONE',  ( 0.0000000000000000000, 0.0000000000000000000, 0.0000000000000000000 ) ) ;
#137 = LINE ( 'NONE', #138, #180 ) ;
#138 = CARTESIAN_POINT ( 'NONE',  ( 0.0000000000000000000, 0.0000000000000000000, -0.7500000000000001100 ) ) ;
#139 = DIRECTION ( 'NONE',  ( -1.000000000000000000, -0.0000000000000000000, -0.0000000000000000000 ) ) ;
#140 =( CONVERSION_BASED_UNIT ( 'INCH', #188 ) LENGTH_UNIT ( ) NAMED_UNIT ( #101 ) );
#141 =( NAMED_UNIT ( * ) SI_UNIT ( $, .STERADIAN. ) SOLID_ANGLE_UNIT ( ) );
#142 =( LENGTH_UNIT ( ) NAMED_UNIT ( * ) SI_UNIT ( $, .METRE. ) );
#143 =( NAMED_UNIT ( * ) PLANE_ANGLE_UNIT ( ) SI_UNIT ( $, .RADIAN. ) );
#144 = PRESENTATION_STYLE_ASSIGNMENT (( #145 ) ) ;
#145 = SURFACE_STYLE_USAGE ( .BOTH. , #146 ) ;
#146 = SURFACE_SIDE_STYLE ('',( #147 ) ) ;
#147 = SURFACE_STYLE_FILL_AREA ( #148 ) ;
#148 = FILL_AREA_STYLE ('',( #149 ) ) ;
#149 = FILL_AREA_STYLE_COLOUR ( '', #115 ) ;
#150 = APPLICATION_PROTOCOL_DEFINITION ( 'draft international standard', 'automotive_design', 1998, #197 ) ;
#151 = PRODUCT_CONTEXT ( 'NONE', #197, 'mechanical' ) ;
#152 = FILL_AREA_STYLE_COLOUR ( '', #116 ) ;
#153 = FILL_AREA_STYLE ('',( #152 ) ) ;
#154 = SURFACE_STYLE_FILL_AREA ( #153 ) ;
#155 =( NAMED_UNIT ( * ) SI_UNIT ( $, .STERADIAN. ) SOLID_ANGLE_UNIT ( ) );
#156 =( NAMED_UNIT ( * ) PLANE_ANGLE_UNIT ( ) SI_UNIT ( $, .RADIAN. ) );
#157 =( LENGTH_UNIT ( ) NAMED_UNIT ( * ) SI_UNIT ( $, .METRE. ) );
#158 =( CONVERSION_BASED_UNIT ( 'INCH', #177 ) LENGTH_UNIT ( ) NAMED_UNIT ( #102 ) );
#159 = DIRECTION ( 'NONE',  ( -1.000000000000000000, -0.0000000000000000000, -0.0000000000000000000 ) ) ;
#160 = CARTESIAN_POINT ( 'NONE',  ( 0.0000000000000000000, 0.06250000000000000000, -0.7500000000000001100 ) ) ;
#161 =( NAMED_UNIT ( * ) SI_UNIT ( $, .STERADIAN. ) SOLID_ANGLE_UNIT ( ) );
#162 = APPLICATION_PROTOCOL_DEFINITION ( 'draft international standard', 'automotive_design', 1998, #196 ) ;
#163 =( NAMED_UNIT ( * ) PLANE_ANGLE_UNIT ( ) SI_UNIT ( $, .RADIAN. ) );
#164 =( CONVERSION_BASED_UNIT ( 'INCH', #189 ) LENGTH_UNIT ( ) NAMED_UNIT ( #103 ) );
#165 =( LENGTH_UNIT ( ) NAMED_UNIT ( * ) SI_UNIT ( $, .METRE. ) );
#166 = PRESENTATION_STYLE_ASSIGNMENT (( #168 ) ) ;
#167 = DIRECTION ( 'NONE',  ( -0.0000000000000000000, -1.000000000000000000, -0.0000000000000000000 ) ) ;
#168 = SURFACE_STYLE_USAGE ( .BOTH. , #169 ) ;
#169 = SURFACE_SIDE_STYLE ('',( #154 ) ) ;
#170 = PRODUCT_DEFINITION_CONTEXT ( 'detailed design', #196, 'design' ) ;
#171 = PRODUCT_DEFINITION_SHAPE ( 'NONE', 'NONE',  #200 ) ;
#172 = VECTOR ( 'NONE', #3, 39.37007874015748100 ) ;
#173 = VECTOR ( 'NONE', #159, 39.37007874015748100 ) ;
#174 = MECHANICAL_DESIGN_GEOMETRIC_PRESENTATION_REPRESENTATION (  '', ( #191 ), #207 ) ;
#175 = VECTOR ( 'NONE', #28, 39.37007874015748100 ) ;
#176 = VECTOR ( 'NONE', #167, 39.37007874015748100 ) ;
#177 = LENGTH_MEASURE_WITH_UNIT ( LENGTH_MEASURE( 0.02539999999999999900 ), #157 );
#178 = PRESENTATION_LAYER_ASSIGNMENT (  '', '', ( #191 ) ) ;
#179 = VECTOR ( 'NONE', #23, 39.37007874015748100 ) ;
#180 = VECTOR ( 'NONE', #139, 39.37007874015748100 ) ;
#181 = STYLED_ITEM ( 'NONE', ( #144 ), #117 ) ;
#182 = AXIS2_PLACEMENT_3D ( 'NONE', #136, #135, #134 ) ;
#183 = FACE_OUTER_BOUND ( 'NONE', #99, .T. ) ;
#184 = VECTOR ( 'NONE', #9, 39.37007874015748100 ) ;
#185 = VECTOR ( 'NONE', #6, 39.37007874015748100 ) ;
#186 = PRESENTATION_LAYER_ASSIGNMENT (  '', '', ( #181 ) ) ;
#187 = AXIS2_PLACEMENT_3D ( 'NONE', #37, #36, #35 ) ;
#188 = LENGTH_MEASURE_WITH_UNIT ( LENGTH_MEASURE( 0.02539999999999999900 ), #142 );
#189 = LENGTH_MEASURE_WITH_UNIT ( LENGTH_MEASURE( 0.02539999999999999900 ), #165 );
#190 = VECTOR ( 'NONE', #18, 39.37007874015748100 ) ;
#191 = STYLED_ITEM ( 'NONE', ( #166 ), #210 ) ;
#192 = VECTOR ( 'NONE', #15, 39.37007874015748100 ) ;
#193 = VECTOR ( 'NONE', #24, 39.37007874015748100 ) ;
#194 = PRODUCT_DEFINITION_FORMATION_WITH_SPECIFIED_SOURCE ( 'ANY', '', #104, .NOT_KNOWN. ) ;
#195 = MECHANICAL_DESIGN_GEOMETRIC_PRESENTATION_REPRESENTATION (  '', ( #181 ), #209 ) ;
#196 = APPLICATION_CONTEXT ( 'automotive_design' ) ;
#197 = APPLICATION_CONTEXT ( 'automotive_design' ) ;
#198 = PRODUCT_RELATED_PRODUCT_CATEGORY ( 'part', '', ( #104 ) ) ;
#199 = EDGE_CURVE ( 'NONE', #77, #82, #20, .T. ) ;
#200 = PRODUCT_DEFINITION ( 'UNKNOWN', '', #194, #170 ) ;
#201 = EDGE_CURVE ( 'NONE', #83, #76, #17, .T. ) ;
#202 = EDGE_CURVE ( 'NONE', #83, #77, #14, .T. ) ;
#203 = EDGE_CURVE ( 'NONE', #80, #78, #8, .T. ) ;
#204 = EDGE_CURVE ( 'NONE', #76, #80, #5, .T. ) ;
#205 = EDGE_CURVE ( 'NONE', #79, #81, #2, .T. ) ;
#206 = EDGE_CURVE ( 'NONE', #78, #81, #137, .T. ) ;
#207 =( GEOMETRIC_REPRESENTATION_CONTEXT ( 3 ) GLOBAL_UNCERTAINTY_ASSIGNED_CONTEXT ( ( #120 ) ) GLOBAL_UNIT_ASSIGNED_CONTEXT ( ( #164, #163, #161 ) ) REPRESENTATION_CONTEXT ( 'NONE', 'WORKASPACE' ) );
#208 =( GEOMETRIC_REPRESENTATION_CONTEXT ( 3 ) GLOBAL_UNCERTAINTY_ASSIGNED_CONTEXT ( ( #119 ) ) GLOBAL_UNIT_ASSIGNED_CONTEXT ( ( #158, #156, #155 ) ) REPRESENTATION_CONTEXT ( 'NONE', 'WORKASPACE' ) );
#209 =( GEOMETRIC_REPRESENTATION_CONTEXT ( 3 ) GLOBAL_UNCERTAINTY_ASSIGNED_CONTEXT ( ( #118 ) ) GLOBAL_UNIT_ASSIGNED_CONTEXT ( ( #140, #143, #141 ) ) REPRESENTATION_CONTEXT ( 'NONE', 'WORKASPACE' ) );
#210 = MANIFOLD_SOLID_BREP ( 'Boss-Extrude1', #122 ) ;
#211 = EDGE_CURVE ( 'NONE', #80, #79, #27, .T. ) ;
ENDSEC;
END-ISO-10303-21;
