ISO-10303-21;
HEADER;
FILE_DESCRIPTION (( 'STEP AP214' ),
    '1' );
FILE_NAME ('P063DH.step',
    '2012-04-20T21:00:13',
    ( '' ),
    ( '' ),
    'SwSTEP 2.0',
    'SolidWorks 2012',
    '' );
FILE_SCHEMA (( 'AUTOMOTIVE_DESIGN' ));
ENDSEC;

DATA;
#1 = VECTOR ( 'NONE', #129, 39.37007874015748100 ) ;
#2 = AXIS2_PLACEMENT_3D ( 'NONE', #130, #131, #132 ) ;
#3 = FACE_OUTER_BOUND ( 'NONE', #76, .T. ) ;
#4 = FACE_OUTER_BOUND ( 'NONE', #73, .T. ) ;
#5 = AXIS2_PLACEMENT_3D ( 'NONE', #138, #139, #140 ) ;
#6 = AXIS2_PLACEMENT_3D ( 'NONE', #142, #143, #144 ) ;
#7 = FACE_OUTER_BOUND ( 'NONE', #72, .T. ) ;
#8 = FACE_OUTER_BOUND ( 'NONE', #71, .T. ) ;
#9 = AXIS2_PLACEMENT_3D ( 'NONE', #146, #147, #148 ) ;
#10 = STYLED_ITEM ( 'NONE', ( #158 ), #209 ) ;
#11 = AXIS2_PLACEMENT_3D ( 'NONE', #150, #151, #152 ) ;
#12 = PRESENTATION_LAYER_ASSIGNMENT (  '', '', ( #10 ) ) ;
#13 = MECHANICAL_DESIGN_GEOMETRIC_PRESENTATION_REPRESENTATION (  '', ( #10 ), #104 ) ;
#14 = LENGTH_MEASURE_WITH_UNIT ( LENGTH_MEASURE( 0.02539999999999999900 ), #159 );
#15 = LENGTH_MEASURE_WITH_UNIT ( LENGTH_MEASURE( 0.02539999999999999900 ), #163 );
#16 = STYLED_ITEM ( 'NONE', ( #173 ), #120 ) ;
#17 = PRESENTATION_LAYER_ASSIGNMENT (  '', '', ( #16 ) ) ;
#18 = MECHANICAL_DESIGN_GEOMETRIC_PRESENTATION_REPRESENTATION (  '', ( #16 ), #102 ) ;
#19 = LENGTH_MEASURE_WITH_UNIT ( LENGTH_MEASURE( 0.02539999999999999900 ), #174 );
#20 = AXIS2_PLACEMENT_3D ( 'NONE', #178, #179, #180 ) ;
#21 = PRODUCT_DEFINITION_FORMATION_WITH_SPECIFIED_SOURCE ( 'ANY', '', #31, .NOT_KNOWN. ) ;
#22 = CARTESIAN_POINT ( 'NONE',  ( 0.4999999999999998300, 0.06250000000000000000, -1.000000000000000000 ) ) ;
#23 = DIRECTION ( 'NONE',  ( -1.365923996832131600E-016, -0.0000000000000000000, -1.000000000000000000 ) ) ;
#24 = CARTESIAN_POINT ( 'NONE',  ( 0.0000000000000000000, 0.0000000000000000000, -1.000000000000000000 ) ) ;
#25 = LINE ( 'NONE', #27, #97 ) ;
#26 = LINE ( 'NONE', #24, #98 ) ;
#27 = CARTESIAN_POINT ( 'NONE',  ( 0.0000000000000000000, 0.06250000000000000000, -1.000000000000000000 ) ) ;
#28 = LINE ( 'NONE', #22, #96 ) ;
#29 = DIRECTION ( 'NONE',  ( -0.0000000000000000000, -1.000000000000000000, -0.0000000000000000000 ) ) ;
#30 = DIRECTION ( 'NONE',  ( -1.000000000000000000, -0.0000000000000000000, -0.0000000000000000000 ) ) ;
#31 = PRODUCT ( 'P063DH', 'P063DH', '', ( #182 ) ) ;
#32 = DIMENSIONAL_EXPONENTS ( 1.000000000000000000, 0.0000000000000000000, 0.0000000000000000000, 0.0000000000000000000, 0.0000000000000000000, 0.0000000000000000000, 0.0000000000000000000 ) ;
#33 = DIMENSIONAL_EXPONENTS ( 1.000000000000000000, 0.0000000000000000000, 0.0000000000000000000, 0.0000000000000000000, 0.0000000000000000000, 0.0000000000000000000, 0.0000000000000000000 ) ;
#34 = DIMENSIONAL_EXPONENTS ( 1.000000000000000000, 0.0000000000000000000, 0.0000000000000000000, 0.0000000000000000000, 0.0000000000000000000, 0.0000000000000000000, 0.0000000000000000000 ) ;
#35 = ORIENTED_EDGE ( 'NONE', *, *, #188, .F. ) ;
#36 = VERTEX_POINT ( 'NONE', #42 ) ;
#37 = DIRECTION ( 'NONE',  ( -1.365923996832131600E-016, -0.0000000000000000000, -1.000000000000000000 ) ) ;
#38 = VERTEX_POINT ( 'NONE', #43 ) ;
#39 = VERTEX_POINT ( 'NONE', #44 ) ;
#40 = VERTEX_POINT ( 'NONE', #45 ) ;
#41 = VERTEX_POINT ( 'NONE', #46 ) ;
#42 = CARTESIAN_POINT ( 'NONE',  ( 0.0000000000000000000, 0.06250000000000000000, 0.0000000000000000000 ) ) ;
#43 = CARTESIAN_POINT ( 'NONE',  ( 0.4999999999999998300, 0.0000000000000000000, -1.000000000000000000 ) ) ;
#44 = CARTESIAN_POINT ( 'NONE',  ( 0.4999999999999998300, 0.06250000000000000000, -1.000000000000000000 ) ) ;
#45 = CARTESIAN_POINT ( 'NONE',  ( 0.0000000000000000000, 0.0000000000000000000, -1.000000000000000000 ) ) ;
#46 = CARTESIAN_POINT ( 'NONE',  ( 0.0000000000000000000, 0.06250000000000000000, -1.000000000000000000 ) ) ;
#47 = CARTESIAN_POINT ( 'NONE',  ( 0.5000000000000000000, 0.0000000000000000000, -1.530808498934190900E-017 ) ) ;
#48 = CARTESIAN_POINT ( 'NONE',  ( 0.0000000000000000000, 0.0000000000000000000, 0.0000000000000000000 ) ) ;
#49 = CARTESIAN_POINT ( 'NONE',  ( 0.5000000000000000000, 0.06250000000000000000, -1.530808498934190900E-017 ) ) ;
#50 = LINE ( 'NONE', #51, #90 ) ;
#51 = CARTESIAN_POINT ( 'NONE',  ( 0.5000000000000000000, 0.0000000000000000000, -1.530808498934190900E-017 ) ) ;
#52 = DIRECTION ( 'NONE',  ( 1.000000000000000000, -0.0000000000000000000, -3.061616997868381800E-017 ) ) ;
#53 = PLANE ( 'NONE',  #2 ) ;
#54 = LINE ( 'NONE', #55, #91 ) ;
#55 = CARTESIAN_POINT ( 'NONE',  ( 0.5000000000000000000, 0.06250000000000000000, -1.530808498934190900E-017 ) ) ;
#56 = DIRECTION ( 'NONE',  ( -0.0000000000000000000, -1.000000000000000000, -0.0000000000000000000 ) ) ;
#57 = LINE ( 'NONE', #58, #92 ) ;
#58 = CARTESIAN_POINT ( 'NONE',  ( 0.5000000000000000000, 0.06250000000000000000, -1.530808498934190900E-017 ) ) ;
#59 = DIRECTION ( 'NONE',  ( 1.000000000000000000, -0.0000000000000000000, -3.061616997868381800E-017 ) ) ;
#60 = LINE ( 'NONE', #61, #93 ) ;
#61 = CARTESIAN_POINT ( 'NONE',  ( 0.0000000000000000000, 0.06250000000000000000, 0.0000000000000000000 ) ) ;
#62 = DIRECTION ( 'NONE',  ( -0.0000000000000000000, -1.000000000000000000, -0.0000000000000000000 ) ) ;
#63 = LINE ( 'NONE', #64, #94 ) ;
#64 = CARTESIAN_POINT ( 'NONE',  ( 0.4999999999999998300, 0.06250000000000000000, -1.000000000000000000 ) ) ;
#65 = DIRECTION ( 'NONE',  ( -0.0000000000000000000, -1.000000000000000000, -0.0000000000000000000 ) ) ;
#66 = LINE ( 'NONE', #67, #95 ) ;
#67 = CARTESIAN_POINT ( 'NONE',  ( 0.4999999999999998300, 0.0000000000000000000, -1.000000000000000000 ) ) ;
#68 = VERTEX_POINT ( 'NONE', #47 ) ;
#69 = VERTEX_POINT ( 'NONE', #48 ) ;
#70 = VERTEX_POINT ( 'NONE', #49 ) ;
#71 = EDGE_LOOP ( 'NONE', ( #79, #78, #77, #107 ) ) ;
#72 = EDGE_LOOP ( 'NONE', ( #86, #83, #85, #82 ) ) ;
#73 = EDGE_LOOP ( 'NONE', ( #81, #35, #80, #84 ) ) ;
#74 = EDGE_LOOP ( 'NONE', ( #106, #109, #108, #110 ) ) ;
#75 = EDGE_LOOP ( 'NONE', ( #115, #117, #116, #118 ) ) ;
#76 = EDGE_LOOP ( 'NONE', ( #111, #113, #112, #114 ) ) ;
#77 = ORIENTED_EDGE ( 'NONE', *, *, #193, .F. ) ;
#78 = ORIENTED_EDGE ( 'NONE', *, *, #195, .F. ) ;
#79 = ORIENTED_EDGE ( 'NONE', *, *, #185, .F. ) ;
#80 = ORIENTED_EDGE ( 'NONE', *, *, #196, .F. ) ;
#81 = ORIENTED_EDGE ( 'NONE', *, *, #195, .T. ) ;
#82 = ORIENTED_EDGE ( 'NONE', *, *, #196, .T. ) ;
#83 = ORIENTED_EDGE ( 'NONE', *, *, #191, .T. ) ;
#84 = ORIENTED_EDGE ( 'NONE', *, *, #192, .T. ) ;
#85 = ORIENTED_EDGE ( 'NONE', *, *, #194, .T. ) ;
#86 = ORIENTED_EDGE ( 'NONE', *, *, #187, .T. ) ;
#87 = AXIS2_PLACEMENT_3D ( 'NONE', #134, #135, #136 ) ;
#88 = CLOSED_SHELL ( 'NONE', ( #197, #198, #199, #200, #201, #202 ) ) ;
#89 = FACE_OUTER_BOUND ( 'NONE', #74, .T. ) ;
#90 = VECTOR ( 'NONE', #52, 39.37007874015748100 ) ;
#91 = VECTOR ( 'NONE', #56, 39.37007874015748100 ) ;
#92 = VECTOR ( 'NONE', #59, 39.37007874015748100 ) ;
#93 = VECTOR ( 'NONE', #62, 39.37007874015748100 ) ;
#94 = VECTOR ( 'NONE', #65, 39.37007874015748100 ) ;
#95 = VECTOR ( 'NONE', #37, 39.37007874015748100 ) ;
#96 = VECTOR ( 'NONE', #23, 39.37007874015748100 ) ;
#97 = VECTOR ( 'NONE', #29, 39.37007874015748100 ) ;
#98 = VECTOR ( 'NONE', #30, 39.37007874015748100 ) ;
#99 = VECTOR ( 'NONE', #123, 39.37007874015748100 ) ;
#100 = VECTOR ( 'NONE', #126, 39.37007874015748100 ) ;
#101 = FACE_OUTER_BOUND ( 'NONE', #75, .T. ) ;
#102 =( GEOMETRIC_REPRESENTATION_CONTEXT ( 3 ) GLOBAL_UNCERTAINTY_ASSIGNED_CONTEXT ( ( #121 ) ) GLOBAL_UNIT_ASSIGNED_CONTEXT ( ( #175, #176, #177 ) ) REPRESENTATION_CONTEXT ( 'NONE', 'WORKASPACE' ) );
#103 = LINE ( 'NONE', #211, #99 ) ;
#104 =( GEOMETRIC_REPRESENTATION_CONTEXT ( 3 ) GLOBAL_UNCERTAINTY_ASSIGNED_CONTEXT ( ( #119 ) ) GLOBAL_UNIT_ASSIGNED_CONTEXT ( ( #160, #161, #162 ) ) REPRESENTATION_CONTEXT ( 'NONE', 'WORKASPACE' ) );
#105 =( GEOMETRIC_REPRESENTATION_CONTEXT ( 3 ) GLOBAL_UNCERTAINTY_ASSIGNED_CONTEXT ( ( #122 ) ) GLOBAL_UNIT_ASSIGNED_CONTEXT ( ( #164, #165, #166 ) ) REPRESENTATION_CONTEXT ( 'NONE', 'WORKASPACE' ) );
#106 = ORIENTED_EDGE ( 'NONE', *, *, #185, .T. ) ;
#107 = ORIENTED_EDGE ( 'NONE', *, *, #190, .F. ) ;
#108 = ORIENTED_EDGE ( 'NONE', *, *, #187, .F. ) ;
#109 = ORIENTED_EDGE ( 'NONE', *, *, #186, .F. ) ;
#110 = ORIENTED_EDGE ( 'NONE', *, *, #188, .T. ) ;
#111 = ORIENTED_EDGE ( 'NONE', *, *, #190, .T. ) ;
#112 = ORIENTED_EDGE ( 'NONE', *, *, #191, .F. ) ;
#113 = ORIENTED_EDGE ( 'NONE', *, *, #189, .F. ) ;
#114 = ORIENTED_EDGE ( 'NONE', *, *, #186, .T. ) ;
#115 = ORIENTED_EDGE ( 'NONE', *, *, #193, .T. ) ;
#116 = ORIENTED_EDGE ( 'NONE', *, *, #194, .F. ) ;
#117 = ORIENTED_EDGE ( 'NONE', *, *, #192, .F. ) ;
#118 = ORIENTED_EDGE ( 'NONE', *, *, #189, .T. ) ;
#119 = UNCERTAINTY_MEASURE_WITH_UNIT (LENGTH_MEASURE( 1.000000000000000100E-005 ), #160, 'distance_accuracy_value', 'NONE');
#120 = ADVANCED_BREP_SHAPE_REPRESENTATION ( 'P063DH', ( #209, #20 ), #105 ) ;
#121 = UNCERTAINTY_MEASURE_WITH_UNIT (LENGTH_MEASURE( 1.000000000000000100E-005 ), #175, 'distance_accuracy_value', 'NONE');
#122 = UNCERTAINTY_MEASURE_WITH_UNIT (LENGTH_MEASURE( 1.000000000000000100E-005 ), #164, 'distance_accuracy_value', 'NONE');
#123 = DIRECTION ( 'NONE',  ( -1.000000000000000000, -0.0000000000000000000, -0.0000000000000000000 ) ) ;
#124 = LINE ( 'NONE', #125, #100 ) ;
#125 = CARTESIAN_POINT ( 'NONE',  ( 0.0000000000000000000, 0.0000000000000000000, 0.0000000000000000000 ) ) ;
#126 = DIRECTION ( 'NONE',  ( -0.0000000000000000000, -0.0000000000000000000, 1.000000000000000000 ) ) ;
#127 = LINE ( 'NONE', #128, #1 ) ;
#128 = CARTESIAN_POINT ( 'NONE',  ( 0.0000000000000000000, 0.06250000000000000000, 0.0000000000000000000 ) ) ;
#129 = DIRECTION ( 'NONE',  ( -0.0000000000000000000, -0.0000000000000000000, 1.000000000000000000 ) ) ;
#130 = CARTESIAN_POINT ( 'NONE',  ( 0.5000000000000000000, 0.06250000000000000000, -1.530808498934190900E-017 ) ) ;
#131 = DIRECTION ( 'NONE',  ( -3.061616997868381800E-017, 0.0000000000000000000, -1.000000000000000000 ) ) ;
#132 = DIRECTION ( 'NONE',  ( -1.000000000000000000, 0.0000000000000000000, 3.061616997868381800E-017 ) ) ;
#133 = PLANE ( 'NONE',  #87 ) ;
#134 = CARTESIAN_POINT ( 'NONE',  ( 0.4999999999999998300, 0.06250000000000000000, -1.000000000000000000 ) ) ;
#135 = DIRECTION ( 'NONE',  ( -1.000000000000000000, 0.0000000000000000000, 1.365923996832131600E-016 ) ) ;
#136 = DIRECTION ( 'NONE',  ( 1.365923996832131600E-016, 0.0000000000000000000, 1.000000000000000000 ) ) ;
#137 = PLANE ( 'NONE',  #5 ) ;
#138 = CARTESIAN_POINT ( 'NONE',  ( 0.0000000000000000000, 0.06250000000000000000, -1.000000000000000000 ) ) ;
#139 = DIRECTION ( 'NONE',  ( 0.0000000000000000000, 0.0000000000000000000, 1.000000000000000000 ) ) ;
#140 = DIRECTION ( 'NONE',  ( 1.000000000000000000, 0.0000000000000000000, -0.0000000000000000000 ) ) ;
#141 = PLANE ( 'NONE',  #6 ) ;
#142 = CARTESIAN_POINT ( 'NONE',  ( 0.0000000000000000000, 0.06250000000000000000, 0.0000000000000000000 ) ) ;
#143 = DIRECTION ( 'NONE',  ( 1.000000000000000000, -0.0000000000000000000, 0.0000000000000000000 ) ) ;
#144 = DIRECTION ( 'NONE',  ( 0.0000000000000000000, 0.0000000000000000000, -1.000000000000000000 ) ) ;
#145 = PLANE ( 'NONE',  #9 ) ;
#146 = CARTESIAN_POINT ( 'NONE',  ( 0.0000000000000000000, 0.06250000000000000000, 0.0000000000000000000 ) ) ;
#147 = DIRECTION ( 'NONE',  ( 0.0000000000000000000, -1.000000000000000000, -0.0000000000000000000 ) ) ;
#148 = DIRECTION ( 'NONE',  ( 0.0000000000000000000, 0.0000000000000000000, -1.000000000000000000 ) ) ;
#149 = PLANE ( 'NONE',  #11 ) ;
#150 = CARTESIAN_POINT ( 'NONE',  ( 0.0000000000000000000, 0.0000000000000000000, 0.0000000000000000000 ) ) ;
#151 = DIRECTION ( 'NONE',  ( 0.0000000000000000000, -1.000000000000000000, -0.0000000000000000000 ) ) ;
#152 = DIRECTION ( 'NONE',  ( 0.0000000000000000000, 0.0000000000000000000, -1.000000000000000000 ) ) ;
#153 = FILL_AREA_STYLE_COLOUR ( '', #184 ) ;
#154 = FILL_AREA_STYLE ('',( #153 ) ) ;
#155 = SURFACE_STYLE_FILL_AREA ( #154 ) ;
#156 = SURFACE_SIDE_STYLE ('',( #155 ) ) ;
#157 = SURFACE_STYLE_USAGE ( .BOTH. , #156 ) ;
#158 = PRESENTATION_STYLE_ASSIGNMENT (( #157 ) ) ;
#159 =( LENGTH_UNIT ( ) NAMED_UNIT ( * ) SI_UNIT ( $, .METRE. ) );
#160 =( CONVERSION_BASED_UNIT ( 'INCH', #14 ) LENGTH_UNIT ( ) NAMED_UNIT ( #33 ) );
#161 =( NAMED_UNIT ( * ) PLANE_ANGLE_UNIT ( ) SI_UNIT ( $, .RADIAN. ) );
#162 =( NAMED_UNIT ( * ) SI_UNIT ( $, .STERADIAN. ) SOLID_ANGLE_UNIT ( ) );
#163 =( LENGTH_UNIT ( ) NAMED_UNIT ( * ) SI_UNIT ( $, .METRE. ) );
#164 =( CONVERSION_BASED_UNIT ( 'INCH', #15 ) LENGTH_UNIT ( ) NAMED_UNIT ( #34 ) );
#165 =( NAMED_UNIT ( * ) PLANE_ANGLE_UNIT ( ) SI_UNIT ( $, .RADIAN. ) );
#166 =( NAMED_UNIT ( * ) SI_UNIT ( $, .STERADIAN. ) SOLID_ANGLE_UNIT ( ) );
#167 = APPLICATION_PROTOCOL_DEFINITION ( 'draft international standard', 'automotive_design', 1998, #206 ) ;
#168 = FILL_AREA_STYLE_COLOUR ( '', #203 ) ;
#169 = FILL_AREA_STYLE ('',( #168 ) ) ;
#170 = SURFACE_STYLE_FILL_AREA ( #169 ) ;
#171 = SURFACE_SIDE_STYLE ('',( #170 ) ) ;
#172 = SURFACE_STYLE_USAGE ( .BOTH. , #171 ) ;
#173 = PRESENTATION_STYLE_ASSIGNMENT (( #172 ) ) ;
#174 =( LENGTH_UNIT ( ) NAMED_UNIT ( * ) SI_UNIT ( $, .METRE. ) );
#175 =( CONVERSION_BASED_UNIT ( 'INCH', #19 ) LENGTH_UNIT ( ) NAMED_UNIT ( #32 ) );
#176 =( NAMED_UNIT ( * ) PLANE_ANGLE_UNIT ( ) SI_UNIT ( $, .RADIAN. ) );
#177 =( NAMED_UNIT ( * ) SI_UNIT ( $, .STERADIAN. ) SOLID_ANGLE_UNIT ( ) );
#178 = CARTESIAN_POINT ( 'NONE',  ( 0.0000000000000000000, 0.0000000000000000000, 0.0000000000000000000 ) ) ;
#179 = DIRECTION ( 'NONE',  ( 0.0000000000000000000, 0.0000000000000000000, 1.000000000000000000 ) ) ;
#180 = DIRECTION ( 'NONE',  ( 1.000000000000000000, 0.0000000000000000000, 0.0000000000000000000 ) ) ;
#181 = SHAPE_DEFINITION_REPRESENTATION ( #208, #120 ) ;
#182 = PRODUCT_CONTEXT ( 'NONE', #206, 'mechanical' ) ;
#183 = APPLICATION_PROTOCOL_DEFINITION ( 'draft international standard', 'automotive_design', 1998, #207 ) ;
#184 = COLOUR_RGB ( '',0.5686274509803921400, 0.5686274509803921400, 0.5882352941176470800 ) ;
#185 = EDGE_CURVE ( 'NONE', #69, #68, #50, .T. ) ;
#186 = EDGE_CURVE ( 'NONE', #70, #68, #54, .T. ) ;
#187 = EDGE_CURVE ( 'NONE', #36, #70, #57, .T. ) ;
#188 = EDGE_CURVE ( 'NONE', #36, #69, #60, .T. ) ;
#189 = EDGE_CURVE ( 'NONE', #39, #38, #63, .T. ) ;
#190 = EDGE_CURVE ( 'NONE', #68, #38, #66, .T. ) ;
#191 = EDGE_CURVE ( 'NONE', #70, #39, #28, .T. ) ;
#192 = EDGE_CURVE ( 'NONE', #41, #40, #25, .T. ) ;
#193 = EDGE_CURVE ( 'NONE', #38, #40, #26, .T. ) ;
#194 = EDGE_CURVE ( 'NONE', #39, #41, #103, .T. ) ;
#195 = EDGE_CURVE ( 'NONE', #40, #69, #124, .T. ) ;
#196 = EDGE_CURVE ( 'NONE', #41, #36, #127, .T. ) ;
#197 = ADVANCED_FACE ( 'NONE', ( #89 ), #53, .F. ) ;
#198 = ADVANCED_FACE ( 'NONE', ( #3 ), #133, .F. ) ;
#199 = ADVANCED_FACE ( 'NONE', ( #101 ), #137, .F. ) ;
#200 = ADVANCED_FACE ( 'NONE', ( #4 ), #141, .F. ) ;
#201 = ADVANCED_FACE ( 'NONE', ( #7 ), #145, .F. ) ;
#202 = ADVANCED_FACE ( 'NONE', ( #8 ), #149, .T. ) ;
#203 = COLOUR_RGB ( '',0.5686274509803921400, 0.5686274509803921400, 0.5882352941176470800 ) ;
#204 = PRODUCT_RELATED_PRODUCT_CATEGORY ( 'part', '', ( #31 ) ) ;
#205 = PRODUCT_DEFINITION ( 'UNKNOWN', '', #21, #210 ) ;
#206 = APPLICATION_CONTEXT ( 'automotive_design' ) ;
#207 = APPLICATION_CONTEXT ( 'automotive_design' ) ;
#208 = PRODUCT_DEFINITION_SHAPE ( 'NONE', 'NONE',  #205 ) ;
#209 = MANIFOLD_SOLID_BREP ( 'Boss-Extrude1', #88 ) ;
#210 = PRODUCT_DEFINITION_CONTEXT ( 'detailed design', #207, 'design' ) ;
#211 = CARTESIAN_POINT ( 'NONE',  ( 0.0000000000000000000, 0.06250000000000000000, -1.000000000000000000 ) ) ;
ENDSEC;
END-ISO-10303-21;
