ISO-10303-21;
HEADER;
FILE_DESCRIPTION (( 'STEP AP214' ),
    '1' );
FILE_NAME ('P1000AB.step',
    '2012-04-20T21:00:20',
    ( '' ),
    ( '' ),
    'SwSTEP 2.0',
    'SolidWorks 2012',
    '' );
FILE_SCHEMA (( 'AUTOMOTIVE_DESIGN' ));
ENDSEC;

DATA;
#1 = DIMENSIONAL_EXPONENTS ( 1.000000000000000000, 0.0000000000000000000, 0.0000000000000000000, 0.0000000000000000000, 0.0000000000000000000, 0.0000000000000000000, 0.0000000000000000000 ) ;
#2 = DIMENSIONAL_EXPONENTS ( 1.000000000000000000, 0.0000000000000000000, 0.0000000000000000000, 0.0000000000000000000, 0.0000000000000000000, 0.0000000000000000000, 0.0000000000000000000 ) ;
#3 = PRODUCT ( 'P1000AB', 'P1000AB', '', ( #20 ) ) ;
#4 = DIMENSIONAL_EXPONENTS ( 1.000000000000000000, 0.0000000000000000000, 0.0000000000000000000, 0.0000000000000000000, 0.0000000000000000000, 0.0000000000000000000, 0.0000000000000000000 ) ;
#5 = AXIS2_PLACEMENT_3D ( 'NONE', #103, #102, #101 ) ;
#6 = FACE_OUTER_BOUND ( 'NONE', #144, .T. ) ;
#7 = AXIS2_PLACEMENT_3D ( 'NONE', #80, #79, #78 ) ;
#8 = VECTOR ( 'NONE', #109, 39.37007874015748100 ) ;
#9 = FACE_OUTER_BOUND ( 'NONE', #143, .T. ) ;
#10 = FACE_OUTER_BOUND ( 'NONE', #145, .T. ) ;
#11 = CLOSED_SHELL ( 'NONE', ( #186, #188, #187, #197, #195, #209 ) ) ;
#12 = AXIS2_PLACEMENT_3D ( 'NONE', #107, #106, #105 ) ;
#13 = MECHANICAL_DESIGN_GEOMETRIC_PRESENTATION_REPRESENTATION (  '', ( #16 ), #211 ) ;
#14 = PRESENTATION_LAYER_ASSIGNMENT (  '', '', ( #16 ) ) ;
#15 = AXIS2_PLACEMENT_3D ( 'NONE', #99, #98, #97 ) ;
#16 = STYLED_ITEM ( 'NONE', ( #91 ), #190 ) ;
#17 =( GEOMETRIC_REPRESENTATION_CONTEXT ( 3 ) GLOBAL_UNCERTAINTY_ASSIGNED_CONTEXT ( ( #159 ) ) GLOBAL_UNIT_ASSIGNED_CONTEXT ( ( #40, #37, #34 ) ) REPRESENTATION_CONTEXT ( 'NONE', 'WORKASPACE' ) );
#18 =( CONVERSION_BASED_UNIT ( 'INCH', #164 ) LENGTH_UNIT ( ) NAMED_UNIT ( #4 ) );
#19 =( NAMED_UNIT ( * ) PLANE_ANGLE_UNIT ( ) SI_UNIT ( $, .RADIAN. ) );
#20 = PRODUCT_CONTEXT ( 'NONE', #156, 'mechanical' ) ;
#21 =( NAMED_UNIT ( * ) SI_UNIT ( $, .STERADIAN. ) SOLID_ANGLE_UNIT ( ) );
#22 =( CONVERSION_BASED_UNIT ( 'INCH', #162 ) LENGTH_UNIT ( ) NAMED_UNIT ( #2 ) );
#23 =( LENGTH_UNIT ( ) NAMED_UNIT ( * ) SI_UNIT ( $, .METRE. ) );
#24 = DIRECTION ( 'NONE',  ( 0.0000000000000000000, 0.0000000000000000000, 1.000000000000000000 ) ) ;
#25 = SURFACE_STYLE_USAGE ( .BOTH. , #27 ) ;
#26 = PRESENTATION_STYLE_ASSIGNMENT (( #25 ) ) ;
#27 = SURFACE_SIDE_STYLE ('',( #28 ) ) ;
#28 = SURFACE_STYLE_FILL_AREA ( #29 ) ;
#29 = FILL_AREA_STYLE ('',( #31 ) ) ;
#30 = APPLICATION_PROTOCOL_DEFINITION ( 'draft international standard', 'automotive_design', 1998, #155 ) ;
#31 = FILL_AREA_STYLE_COLOUR ( '', #205 ) ;
#32 = CARTESIAN_POINT ( 'NONE',  ( 0.0000000000000000000, 0.0000000000000000000, 0.0000000000000000000 ) ) ;
#33 = APPLICATION_PROTOCOL_DEFINITION ( 'draft international standard', 'automotive_design', 1998, #156 ) ;
#34 =( NAMED_UNIT ( * ) SI_UNIT ( $, .STERADIAN. ) SOLID_ANGLE_UNIT ( ) );
#35 = SHAPE_DEFINITION_REPRESENTATION ( #192, #157 ) ;
#36 = DIRECTION ( 'NONE',  ( 1.000000000000000000, 0.0000000000000000000, 0.0000000000000000000 ) ) ;
#37 =( NAMED_UNIT ( * ) PLANE_ANGLE_UNIT ( ) SI_UNIT ( $, .RADIAN. ) );
#38 = ORIENTED_EDGE ( 'NONE', *, *, #199, .F. ) ;
#39 = ORIENTED_EDGE ( 'NONE', *, *, #196, .T. ) ;
#40 =( CONVERSION_BASED_UNIT ( 'INCH', #182 ) LENGTH_UNIT ( ) NAMED_UNIT ( #1 ) );
#41 = ORIENTED_EDGE ( 'NONE', *, *, #202, .T. ) ;
#42 = DIRECTION ( 'NONE',  ( 0.0000000000000000000, -1.000000000000000000, 0.0000000000000000000 ) ) ;
#43 = CARTESIAN_POINT ( 'NONE',  ( 0.0000000000000000000, 0.0000000000000000000, 0.0000000000000000000 ) ) ;
#44 =( LENGTH_UNIT ( ) NAMED_UNIT ( * ) SI_UNIT ( $, .METRE. ) );
#45 = DIRECTION ( 'NONE',  ( 0.0000000000000000000, 0.0000000000000000000, -1.000000000000000000 ) ) ;
#46 = LINE ( 'NONE', #48, #165 ) ;
#47 = DIRECTION ( 'NONE',  ( 1.000000000000000000, -0.0000000000000000000, 3.673940397442058900E-016 ) ) ;
#48 = CARTESIAN_POINT ( 'NONE',  ( 0.2500000000000000600, 0.1250000000000000000, 9.184850993605148400E-017 ) ) ;
#49 = LINE ( 'NONE', #50, #184 ) ;
#50 = CARTESIAN_POINT ( 'NONE',  ( 0.0000000000000000000, 0.0000000000000000000, -1.000000000000000000 ) ) ;
#51 = DIRECTION ( 'NONE',  ( -1.000000000000000000, -0.0000000000000000000, -0.0000000000000000000 ) ) ;
#52 = DIRECTION ( 'NONE',  ( 1.000000000000000000, -0.0000000000000000000, 3.673940397442058900E-016 ) ) ;
#53 = CARTESIAN_POINT ( 'NONE',  ( 0.2500000000000000600, 0.0000000000000000000, 9.184850993605148400E-017 ) ) ;
#54 = LINE ( 'NONE', #53, #170 ) ;
#55 = DIRECTION ( 'NONE',  ( -0.0000000000000000000, -1.000000000000000000, -0.0000000000000000000 ) ) ;
#56 = CARTESIAN_POINT ( 'NONE',  ( 0.0000000000000000000, 0.1250000000000000000, -1.000000000000000000 ) ) ;
#57 = LINE ( 'NONE', #56, #169 ) ;
#58 = DIRECTION ( 'NONE',  ( -0.0000000000000000000, -1.000000000000000000, -0.0000000000000000000 ) ) ;
#59 = CARTESIAN_POINT ( 'NONE',  ( 0.2500000000000000600, 0.1250000000000000000, 9.184850993605148400E-017 ) ) ;
#60 = LINE ( 'NONE', #59, #171 ) ;
#61 = DIRECTION ( 'NONE',  ( -1.000000000000000000, -0.0000000000000000000, -0.0000000000000000000 ) ) ;
#62 = CARTESIAN_POINT ( 'NONE',  ( 0.0000000000000000000, 0.1250000000000000000, -1.000000000000000000 ) ) ;
#63 = LINE ( 'NONE', #62, #172 ) ;
#64 = DIRECTION ( 'NONE',  ( -0.0000000000000000000, -0.0000000000000000000, 1.000000000000000000 ) ) ;
#65 = CARTESIAN_POINT ( 'NONE',  ( 0.0000000000000000000, 0.0000000000000000000, 0.0000000000000000000 ) ) ;
#66 = LINE ( 'NONE', #65, #173 ) ;
#67 = PLANE ( 'NONE',  #183 ) ;
#68 = DIRECTION ( 'NONE',  ( -0.0000000000000000000, -1.000000000000000000, -0.0000000000000000000 ) ) ;
#69 = CARTESIAN_POINT ( 'NONE',  ( 0.2499999999999999200, 0.1250000000000000000, -1.000000000000000000 ) ) ;
#70 = LINE ( 'NONE', #69, #175 ) ;
#71 = DIRECTION ( 'NONE',  ( 0.0000000000000000000, 0.0000000000000000000, -1.000000000000000000 ) ) ;
#72 = DIRECTION ( 'NONE',  ( 1.000000000000000000, -0.0000000000000000000, 0.0000000000000000000 ) ) ;
#73 = CARTESIAN_POINT ( 'NONE',  ( 0.0000000000000000000, 0.1250000000000000000, 0.0000000000000000000 ) ) ;
#74 = PLANE ( 'NONE',  #176 ) ;
#75 = DIRECTION ( 'NONE',  ( -1.365923996832131600E-016, -0.0000000000000000000, -1.000000000000000000 ) ) ;
#76 = CARTESIAN_POINT ( 'NONE',  ( 0.2499999999999999200, 0.1250000000000000000, -1.000000000000000000 ) ) ;
#77 = LINE ( 'NONE', #76, #177 ) ;
#78 = DIRECTION ( 'NONE',  ( 0.0000000000000000000, 0.0000000000000000000, -1.000000000000000000 ) ) ;
#79 = DIRECTION ( 'NONE',  ( 0.0000000000000000000, -1.000000000000000000, 0.0000000000000000000 ) ) ;
#80 = CARTESIAN_POINT ( 'NONE',  ( 0.0000000000000000000, 0.1250000000000000000, 0.0000000000000000000 ) ) ;
#81 = DIRECTION ( 'NONE',  ( -0.0000000000000000000, -1.000000000000000000, -0.0000000000000000000 ) ) ;
#82 = CARTESIAN_POINT ( 'NONE',  ( 0.0000000000000000000, 0.1250000000000000000, 0.0000000000000000000 ) ) ;
#83 = LINE ( 'NONE', #82, #168 ) ;
#84 = PLANE ( 'NONE',  #7 ) ;
#85 = DIRECTION ( 'NONE',  ( -0.0000000000000000000, -0.0000000000000000000, 1.000000000000000000 ) ) ;
#86 = CARTESIAN_POINT ( 'NONE',  ( 0.0000000000000000000, 0.1250000000000000000, 0.0000000000000000000 ) ) ;
#87 = LINE ( 'NONE', #86, #166 ) ;
#88 =( NAMED_UNIT ( * ) SI_UNIT ( $, .STERADIAN. ) SOLID_ANGLE_UNIT ( ) );
#89 =( NAMED_UNIT ( * ) PLANE_ANGLE_UNIT ( ) SI_UNIT ( $, .RADIAN. ) );
#90 =( LENGTH_UNIT ( ) NAMED_UNIT ( * ) SI_UNIT ( $, .METRE. ) );
#91 = PRESENTATION_STYLE_ASSIGNMENT (( #92 ) ) ;
#92 = SURFACE_STYLE_USAGE ( .BOTH. , #93 ) ;
#93 = SURFACE_SIDE_STYLE ('',( #94 ) ) ;
#94 = SURFACE_STYLE_FILL_AREA ( #95 ) ;
#95 = FILL_AREA_STYLE ('',( #96 ) ) ;
#96 = FILL_AREA_STYLE_COLOUR ( '', #204 ) ;
#97 = DIRECTION ( 'NONE',  ( 1.365923996832131600E-016, 0.0000000000000000000, 1.000000000000000000 ) ) ;
#98 = DIRECTION ( 'NONE',  ( -1.000000000000000000, 0.0000000000000000000, 1.365923996832131600E-016 ) ) ;
#99 = CARTESIAN_POINT ( 'NONE',  ( 0.2499999999999999200, 0.1250000000000000000, -1.000000000000000000 ) ) ;
#100 = PLANE ( 'NONE',  #15 ) ;
#101 = DIRECTION ( 'NONE',  ( 1.000000000000000000, 0.0000000000000000000, -0.0000000000000000000 ) ) ;
#102 = DIRECTION ( 'NONE',  ( 0.0000000000000000000, 0.0000000000000000000, 1.000000000000000000 ) ) ;
#103 = CARTESIAN_POINT ( 'NONE',  ( 0.0000000000000000000, 0.1250000000000000000, -1.000000000000000000 ) ) ;
#104 = PLANE ( 'NONE',  #5 ) ;
#105 = DIRECTION ( 'NONE',  ( -1.000000000000000000, 0.0000000000000000000, -3.673940397442058900E-016 ) ) ;
#106 = DIRECTION ( 'NONE',  ( 3.673940397442058900E-016, 0.0000000000000000000, -1.000000000000000000 ) ) ;
#107 = CARTESIAN_POINT ( 'NONE',  ( 0.2500000000000000600, 0.1250000000000000000, 9.184850993605148400E-017 ) ) ;
#108 = PLANE ( 'NONE',  #12 ) ;
#109 = DIRECTION ( 'NONE',  ( -1.365923996832131600E-016, -0.0000000000000000000, -1.000000000000000000 ) ) ;
#110 = CARTESIAN_POINT ( 'NONE',  ( 0.2499999999999999200, 0.0000000000000000000, -1.000000000000000000 ) ) ;
#111 = LINE ( 'NONE', #110, #8 ) ;
#112 = CARTESIAN_POINT ( 'NONE',  ( 0.0000000000000000000, 0.1250000000000000000, -1.000000000000000000 ) ) ;
#113 = CARTESIAN_POINT ( 'NONE',  ( 0.2499999999999999200, 0.1250000000000000000, -1.000000000000000000 ) ) ;
#114 = CARTESIAN_POINT ( 'NONE',  ( 0.0000000000000000000, 0.1250000000000000000, 0.0000000000000000000 ) ) ;
#115 = CARTESIAN_POINT ( 'NONE',  ( 0.2499999999999999200, 0.0000000000000000000, -1.000000000000000000 ) ) ;
#116 = CARTESIAN_POINT ( 'NONE',  ( 0.2500000000000000600, 0.1250000000000000000, 9.184850993605148400E-017 ) ) ;
#117 = CARTESIAN_POINT ( 'NONE',  ( 0.0000000000000000000, 0.0000000000000000000, -1.000000000000000000 ) ) ;
#118 = CARTESIAN_POINT ( 'NONE',  ( 0.0000000000000000000, 0.0000000000000000000, 0.0000000000000000000 ) ) ;
#119 = CARTESIAN_POINT ( 'NONE',  ( 0.2500000000000000600, 0.0000000000000000000, 9.184850993605148400E-017 ) ) ;
#120 = ORIENTED_EDGE ( 'NONE', *, *, #206, .T. ) ;
#121 = ORIENTED_EDGE ( 'NONE', *, *, #203, .T. ) ;
#122 = ORIENTED_EDGE ( 'NONE', *, *, #200, .F. ) ;
#123 = ORIENTED_EDGE ( 'NONE', *, *, #202, .F. ) ;
#124 = ORIENTED_EDGE ( 'NONE', *, *, #194, .F. ) ;
#125 = ORIENTED_EDGE ( 'NONE', *, *, #208, .F. ) ;
#126 = ORIENTED_EDGE ( 'NONE', *, *, #201, .F. ) ;
#127 = ORIENTED_EDGE ( 'NONE', *, *, #194, .T. ) ;
#128 = ORIENTED_EDGE ( 'NONE', *, *, #198, .T. ) ;
#129 = ORIENTED_EDGE ( 'NONE', *, *, #193, .F. ) ;
#130 = ORIENTED_EDGE ( 'NONE', *, *, #196, .F. ) ;
#131 = ORIENTED_EDGE ( 'NONE', *, *, #199, .T. ) ;
#132 = ORIENTED_EDGE ( 'NONE', *, *, #185, .T. ) ;
#133 = ORIENTED_EDGE ( 'NONE', *, *, #201, .T. ) ;
#134 = ORIENTED_EDGE ( 'NONE', *, *, #198, .F. ) ;
#135 = VERTEX_POINT ( 'NONE', #119 ) ;
#136 = VERTEX_POINT ( 'NONE', #118 ) ;
#137 = VERTEX_POINT ( 'NONE', #117 ) ;
#138 = VERTEX_POINT ( 'NONE', #116 ) ;
#139 = VERTEX_POINT ( 'NONE', #115 ) ;
#140 = VERTEX_POINT ( 'NONE', #114 ) ;
#141 = VERTEX_POINT ( 'NONE', #113 ) ;
#142 = VERTEX_POINT ( 'NONE', #112 ) ;
#143 = EDGE_LOOP ( 'NONE', ( #121, #126, #125, #127 ) ) ;
#144 = EDGE_LOOP ( 'NONE', ( #132, #134, #130, #133 ) ) ;
#145 = EDGE_LOOP ( 'NONE', ( #120, #123, #122, #128 ) ) ;
#146 = EDGE_LOOP ( 'NONE', ( #131, #124, #129, #41 ) ) ;
#147 = EDGE_LOOP ( 'NONE', ( #150, #39, #154, #152 ) ) ;
#148 = EDGE_LOOP ( 'NONE', ( #149, #38, #153, #151 ) ) ;
#149 = ORIENTED_EDGE ( 'NONE', *, *, #203, .F. ) ;
#150 = ORIENTED_EDGE ( 'NONE', *, *, #208, .T. ) ;
#151 = ORIENTED_EDGE ( 'NONE', *, *, #185, .F. ) ;
#152 = ORIENTED_EDGE ( 'NONE', *, *, #193, .T. ) ;
#153 = ORIENTED_EDGE ( 'NONE', *, *, #206, .F. ) ;
#154 = ORIENTED_EDGE ( 'NONE', *, *, #200, .T. ) ;
#155 = APPLICATION_CONTEXT ( 'automotive_design' ) ;
#156 = APPLICATION_CONTEXT ( 'automotive_design' ) ;
#157 = ADVANCED_BREP_SHAPE_REPRESENTATION ( 'P1000AB', ( #190, #167 ), #17 ) ;
#158 = UNCERTAINTY_MEASURE_WITH_UNIT (LENGTH_MEASURE( 1.000000000000000100E-005 ), #22, 'distance_accuracy_value', 'NONE');
#159 = UNCERTAINTY_MEASURE_WITH_UNIT (LENGTH_MEASURE( 1.000000000000000100E-005 ), #40, 'distance_accuracy_value', 'NONE');
#160 = UNCERTAINTY_MEASURE_WITH_UNIT (LENGTH_MEASURE( 1.000000000000000100E-005 ), #18, 'distance_accuracy_value', 'NONE');
#161 = PRODUCT_DEFINITION_FORMATION_WITH_SPECIFIED_SOURCE ( 'ANY', '', #3, .NOT_KNOWN. ) ;
#162 = LENGTH_MEASURE_WITH_UNIT ( LENGTH_MEASURE( 0.02539999999999999900 ), #23 );
#163 = FACE_OUTER_BOUND ( 'NONE', #146, .T. ) ;
#164 = LENGTH_MEASURE_WITH_UNIT ( LENGTH_MEASURE( 0.02539999999999999900 ), #90 );
#165 = VECTOR ( 'NONE', #47, 39.37007874015748100 ) ;
#166 = VECTOR ( 'NONE', #85, 39.37007874015748100 ) ;
#167 = AXIS2_PLACEMENT_3D ( 'NONE', #32, #24, #36 ) ;
#168 = VECTOR ( 'NONE', #81, 39.37007874015748100 ) ;
#169 = VECTOR ( 'NONE', #55, 39.37007874015748100 ) ;
#170 = VECTOR ( 'NONE', #52, 39.37007874015748100 ) ;
#171 = VECTOR ( 'NONE', #58, 39.37007874015748100 ) ;
#172 = VECTOR ( 'NONE', #61, 39.37007874015748100 ) ;
#173 = VECTOR ( 'NONE', #64, 39.37007874015748100 ) ;
#174 = FACE_OUTER_BOUND ( 'NONE', #147, .T. ) ;
#175 = VECTOR ( 'NONE', #68, 39.37007874015748100 ) ;
#176 = AXIS2_PLACEMENT_3D ( 'NONE', #73, #72, #71 ) ;
#177 = VECTOR ( 'NONE', #75, 39.37007874015748100 ) ;
#178 = STYLED_ITEM ( 'NONE', ( #26 ), #157 ) ;
#179 = PRESENTATION_LAYER_ASSIGNMENT (  '', '', ( #178 ) ) ;
#180 = MECHANICAL_DESIGN_GEOMETRIC_PRESENTATION_REPRESENTATION (  '', ( #178 ), #210 ) ;
#181 = FACE_OUTER_BOUND ( 'NONE', #148, .T. ) ;
#182 = LENGTH_MEASURE_WITH_UNIT ( LENGTH_MEASURE( 0.02539999999999999900 ), #44 );
#183 = AXIS2_PLACEMENT_3D ( 'NONE', #43, #42, #45 ) ;
#184 = VECTOR ( 'NONE', #51, 39.37007874015748100 ) ;
#185 = EDGE_CURVE ( 'NONE', #135, #139, #111, .T. ) ;
#186 = ADVANCED_FACE ( 'NONE', ( #9 ), #108, .F. ) ;
#187 = ADVANCED_FACE ( 'NONE', ( #10 ), #104, .F. ) ;
#188 = ADVANCED_FACE ( 'NONE', ( #6 ), #100, .F. ) ;
#189 = PRODUCT_DEFINITION ( 'UNKNOWN', '', #161, #191 ) ;
#190 = MANIFOLD_SOLID_BREP ( 'Boss-Extrude1', #11 ) ;
#191 = PRODUCT_DEFINITION_CONTEXT ( 'detailed design', #155, 'design' ) ;
#192 = PRODUCT_DEFINITION_SHAPE ( 'NONE', 'NONE',  #189 ) ;
#193 = EDGE_CURVE ( 'NONE', #142, #140, #87, .T. ) ;
#194 = EDGE_CURVE ( 'NONE', #140, #136, #83, .T. ) ;
#195 = ADVANCED_FACE ( 'NONE', ( #174 ), #84, .F. ) ;
#196 = EDGE_CURVE ( 'NONE', #138, #141, #77, .T. ) ;
#197 = ADVANCED_FACE ( 'NONE', ( #163 ), #74, .F. ) ;
#198 = EDGE_CURVE ( 'NONE', #141, #139, #70, .T. ) ;
#199 = EDGE_CURVE ( 'NONE', #137, #136, #66, .T. ) ;
#200 = EDGE_CURVE ( 'NONE', #141, #142, #63, .T. ) ;
#201 = EDGE_CURVE ( 'NONE', #138, #135, #60, .T. ) ;
#202 = EDGE_CURVE ( 'NONE', #142, #137, #57, .T. ) ;
#203 = EDGE_CURVE ( 'NONE', #136, #135, #54, .T. ) ;
#204 = COLOUR_RGB ( '',0.5686274509803921400, 0.5686274509803921400, 0.5882352941176470800 ) ;
#205 = COLOUR_RGB ( '',0.5686274509803921400, 0.5686274509803921400, 0.5882352941176470800 ) ;
#206 = EDGE_CURVE ( 'NONE', #139, #137, #49, .T. ) ;
#207 = PRODUCT_RELATED_PRODUCT_CATEGORY ( 'part', '', ( #3 ) ) ;
#208 = EDGE_CURVE ( 'NONE', #140, #138, #46, .T. ) ;
#209 = ADVANCED_FACE ( 'NONE', ( #181 ), #67, .T. ) ;
#210 =( GEOMETRIC_REPRESENTATION_CONTEXT ( 3 ) GLOBAL_UNCERTAINTY_ASSIGNED_CONTEXT ( ( #158 ) ) GLOBAL_UNIT_ASSIGNED_CONTEXT ( ( #22, #19, #21 ) ) REPRESENTATION_CONTEXT ( 'NONE', 'WORKASPACE' ) );
#211 =( GEOMETRIC_REPRESENTATION_CONTEXT ( 3 ) GLOBAL_UNCERTAINTY_ASSIGNED_CONTEXT ( ( #160 ) ) GLOBAL_UNIT_ASSIGNED_CONTEXT ( ( #18, #89, #88 ) ) REPRESENTATION_CONTEXT ( 'NONE', 'WORKASPACE' ) );
ENDSEC;
END-ISO-10303-21;
