ISO-10303-21;
HEADER;
FILE_DESCRIPTION (( 'STEP AP214' ),
    '1' );
FILE_NAME ('P1000BB.step',
    '2012-04-20T21:00:23',
    ( '' ),
    ( '' ),
    'SwSTEP 2.0',
    'SolidWorks 2012',
    '' );
FILE_SCHEMA (( 'AUTOMOTIVE_DESIGN' ));
ENDSEC;

DATA;
#1 = DIMENSIONAL_EXPONENTS ( 1.000000000000000000, 0.0000000000000000000, 0.0000000000000000000, 0.0000000000000000000, 0.0000000000000000000, 0.0000000000000000000, 0.0000000000000000000 ) ;
#2 = PRODUCT ( 'P1000BB', 'P1000BB', '', ( #38 ) ) ;
#3 = DIMENSIONAL_EXPONENTS ( 1.000000000000000000, 0.0000000000000000000, 0.0000000000000000000, 0.0000000000000000000, 0.0000000000000000000, 0.0000000000000000000, 0.0000000000000000000 ) ;
#4 = DIMENSIONAL_EXPONENTS ( 1.000000000000000000, 0.0000000000000000000, 0.0000000000000000000, 0.0000000000000000000, 0.0000000000000000000, 0.0000000000000000000, 0.0000000000000000000 ) ;
#5 = VECTOR ( 'NONE', #112, 39.37007874015748100 ) ;
#6 = FACE_OUTER_BOUND ( 'NONE', #143, .T. ) ;
#7 = CLOSED_SHELL ( 'NONE', ( #194, #183, #189, #182, #191, #190 ) ) ;
#8 = FACE_OUTER_BOUND ( 'NONE', #142, .T. ) ;
#9 = FACE_OUTER_BOUND ( 'NONE', #140, .T. ) ;
#10 = AXIS2_PLACEMENT_3D ( 'NONE', #100, #99, #98 ) ;
#11 = VECTOR ( 'NONE', #108, 39.37007874015748100 ) ;
#12 = VECTOR ( 'NONE', #105, 39.37007874015748100 ) ;
#13 = AXIS2_PLACEMENT_3D ( 'NONE', #104, #103, #102 ) ;
#14 = UNCERTAINTY_MEASURE_WITH_UNIT (LENGTH_MEASURE( 1.000000000000000100E-005 ), #44, 'distance_accuracy_value', 'NONE');
#15 = UNCERTAINTY_MEASURE_WITH_UNIT (LENGTH_MEASURE( 1.000000000000000100E-005 ), #41, 'distance_accuracy_value', 'NONE');
#16 = ADVANCED_BREP_SHAPE_REPRESENTATION ( 'P1000BB', ( #204, #207 ), #210 ) ;
#17 = UNCERTAINTY_MEASURE_WITH_UNIT (LENGTH_MEASURE( 1.000000000000000100E-005 ), #20, 'distance_accuracy_value', 'NONE');
#18 =( NAMED_UNIT ( * ) PLANE_ANGLE_UNIT ( ) SI_UNIT ( $, .RADIAN. ) );
#19 = ORIENTED_EDGE ( 'NONE', *, *, #195, .T. ) ;
#20 =( CONVERSION_BASED_UNIT ( 'INCH', #206 ) LENGTH_UNIT ( ) NAMED_UNIT ( #3 ) );
#21 =( NAMED_UNIT ( * ) SI_UNIT ( $, .STERADIAN. ) SOLID_ANGLE_UNIT ( ) );
#22 =( LENGTH_UNIT ( ) NAMED_UNIT ( * ) SI_UNIT ( $, .METRE. ) );
#23 = APPLICATION_PROTOCOL_DEFINITION ( 'draft international standard', 'automotive_design', 1998, #200 ) ;
#24 = PRESENTATION_STYLE_ASSIGNMENT (( #25 ) ) ;
#25 = SURFACE_STYLE_USAGE ( .BOTH. , #26 ) ;
#26 = SURFACE_SIDE_STYLE ('',( #27 ) ) ;
#27 = SURFACE_STYLE_FILL_AREA ( #28 ) ;
#28 = FILL_AREA_STYLE ('',( #29 ) ) ;
#29 = FILL_AREA_STYLE_COLOUR ( '', #193 ) ;
#30 = APPLICATION_PROTOCOL_DEFINITION ( 'draft international standard', 'automotive_design', 1998, #201 ) ;
#31 = SHAPE_DEFINITION_REPRESENTATION ( #203, #16 ) ;
#32 = DIRECTION ( 'NONE',  ( 0.0000000000000000000, 0.0000000000000000000, 1.000000000000000000 ) ) ;
#33 = ORIENTED_EDGE ( 'NONE', *, *, #178, .F. ) ;
#34 = ORIENTED_EDGE ( 'NONE', *, *, #180, .F. ) ;
#35 = DIRECTION ( 'NONE',  ( 1.000000000000000000, 0.0000000000000000000, 0.0000000000000000000 ) ) ;
#36 =( NAMED_UNIT ( * ) SI_UNIT ( $, .STERADIAN. ) SOLID_ANGLE_UNIT ( ) );
#37 = CARTESIAN_POINT ( 'NONE',  ( 0.0000000000000000000, 0.0000000000000000000, 0.0000000000000000000 ) ) ;
#38 = PRODUCT_CONTEXT ( 'NONE', #201, 'mechanical' ) ;
#39 =( NAMED_UNIT ( * ) PLANE_ANGLE_UNIT ( ) SI_UNIT ( $, .RADIAN. ) );
#40 =( LENGTH_UNIT ( ) NAMED_UNIT ( * ) SI_UNIT ( $, .METRE. ) );
#41 =( CONVERSION_BASED_UNIT ( 'INCH', #156 ) LENGTH_UNIT ( ) NAMED_UNIT ( #1 ) );
#42 =( NAMED_UNIT ( * ) SI_UNIT ( $, .STERADIAN. ) SOLID_ANGLE_UNIT ( ) );
#43 =( NAMED_UNIT ( * ) PLANE_ANGLE_UNIT ( ) SI_UNIT ( $, .RADIAN. ) );
#44 =( CONVERSION_BASED_UNIT ( 'INCH', #157 ) LENGTH_UNIT ( ) NAMED_UNIT ( #4 ) );
#45 =( LENGTH_UNIT ( ) NAMED_UNIT ( * ) SI_UNIT ( $, .METRE. ) );
#46 = PRESENTATION_STYLE_ASSIGNMENT (( #47 ) ) ;
#47 = SURFACE_STYLE_USAGE ( .BOTH. , #48 ) ;
#48 = SURFACE_SIDE_STYLE ('',( #49 ) ) ;
#49 = SURFACE_STYLE_FILL_AREA ( #50 ) ;
#50 = FILL_AREA_STYLE ('',( #51 ) ) ;
#51 = FILL_AREA_STYLE_COLOUR ( '', #197 ) ;
#52 = DIRECTION ( 'NONE',  ( 1.000000000000000000, -0.0000000000000000000, -6.123233995736766000E-017 ) ) ;
#53 = CARTESIAN_POINT ( 'NONE',  ( 2.000000000000000000, 0.5000000000000000000, -1.224646799147353200E-016 ) ) ;
#54 = LINE ( 'NONE', #53, #159 ) ;
#55 = DIRECTION ( 'NONE',  ( -0.0000000000000000000, -1.000000000000000000, -0.0000000000000000000 ) ) ;
#56 = CARTESIAN_POINT ( 'NONE',  ( 0.0000000000000000000, 0.5000000000000000000, -2.000000000000000000 ) ) ;
#57 = LINE ( 'NONE', #56, #161 ) ;
#58 = DIRECTION ( 'NONE',  ( -2.731847993664263200E-016, -0.0000000000000000000, -1.000000000000000000 ) ) ;
#59 = CARTESIAN_POINT ( 'NONE',  ( 1.999999999999999300, 0.0000000000000000000, -2.000000000000000000 ) ) ;
#60 = LINE ( 'NONE', #59, #162 ) ;
#61 = DIRECTION ( 'NONE',  ( -1.000000000000000000, 0.0000000000000000000, 6.123233995736766000E-017 ) ) ;
#62 = DIRECTION ( 'NONE',  ( -6.123233995736766000E-017, 0.0000000000000000000, -1.000000000000000000 ) ) ;
#63 = CARTESIAN_POINT ( 'NONE',  ( 2.000000000000000000, 0.5000000000000000000, -1.224646799147353200E-016 ) ) ;
#64 = PLANE ( 'NONE',  #165 ) ;
#65 = DIRECTION ( 'NONE',  ( -0.0000000000000000000, -1.000000000000000000, -0.0000000000000000000 ) ) ;
#66 = CARTESIAN_POINT ( 'NONE',  ( 2.000000000000000000, 0.5000000000000000000, -1.224646799147353200E-016 ) ) ;
#67 = LINE ( 'NONE', #66, #164 ) ;
#68 = DIRECTION ( 'NONE',  ( 0.0000000000000000000, 0.0000000000000000000, -1.000000000000000000 ) ) ;
#69 = DIRECTION ( 'NONE',  ( 0.0000000000000000000, -1.000000000000000000, -0.0000000000000000000 ) ) ;
#70 = CARTESIAN_POINT ( 'NONE',  ( 0.0000000000000000000, 0.5000000000000000000, 0.0000000000000000000 ) ) ;
#71 = PLANE ( 'NONE',  #166 ) ;
#72 = DIRECTION ( 'NONE',  ( 0.0000000000000000000, 0.0000000000000000000, -1.000000000000000000 ) ) ;
#73 = DIRECTION ( 'NONE',  ( 0.0000000000000000000, -1.000000000000000000, -0.0000000000000000000 ) ) ;
#74 = CARTESIAN_POINT ( 'NONE',  ( 0.0000000000000000000, 0.0000000000000000000, 0.0000000000000000000 ) ) ;
#75 = PLANE ( 'NONE',  #168 ) ;
#76 = DIRECTION ( 'NONE',  ( 1.000000000000000000, 0.0000000000000000000, -0.0000000000000000000 ) ) ;
#77 = DIRECTION ( 'NONE',  ( 0.0000000000000000000, 0.0000000000000000000, 1.000000000000000000 ) ) ;
#78 = CARTESIAN_POINT ( 'NONE',  ( 0.0000000000000000000, 0.5000000000000000000, -2.000000000000000000 ) ) ;
#79 = ORIENTED_EDGE ( 'NONE', *, *, #184, .T. ) ;
#80 = ORIENTED_EDGE ( 'NONE', *, *, #192, .F. ) ;
#81 = ORIENTED_EDGE ( 'NONE', *, *, #198, .F. ) ;
#82 = LINE ( 'NONE', #83, #172 ) ;
#83 = CARTESIAN_POINT ( 'NONE',  ( 0.0000000000000000000, 0.5000000000000000000, -2.000000000000000000 ) ) ;
#84 = DIRECTION ( 'NONE',  ( -1.000000000000000000, -0.0000000000000000000, -0.0000000000000000000 ) ) ;
#85 = LINE ( 'NONE', #86, #173 ) ;
#86 = CARTESIAN_POINT ( 'NONE',  ( 0.0000000000000000000, 0.0000000000000000000, 0.0000000000000000000 ) ) ;
#87 = DIRECTION ( 'NONE',  ( -0.0000000000000000000, -0.0000000000000000000, 1.000000000000000000 ) ) ;
#88 = LINE ( 'NONE', #89, #175 ) ;
#89 = CARTESIAN_POINT ( 'NONE',  ( 0.0000000000000000000, 0.0000000000000000000, -2.000000000000000000 ) ) ;
#90 = DIRECTION ( 'NONE',  ( -1.000000000000000000, -0.0000000000000000000, -0.0000000000000000000 ) ) ;
#91 = DIRECTION ( 'NONE',  ( -0.0000000000000000000, -0.0000000000000000000, 1.000000000000000000 ) ) ;
#92 = CARTESIAN_POINT ( 'NONE',  ( 0.0000000000000000000, 0.5000000000000000000, 0.0000000000000000000 ) ) ;
#93 = LINE ( 'NONE', #92, #176 ) ;
#94 = PLANE ( 'NONE',  #171 ) ;
#95 = DIRECTION ( 'NONE',  ( -0.0000000000000000000, -1.000000000000000000, -0.0000000000000000000 ) ) ;
#96 = CARTESIAN_POINT ( 'NONE',  ( 0.0000000000000000000, 0.5000000000000000000, 0.0000000000000000000 ) ) ;
#97 = LINE ( 'NONE', #96, #177 ) ;
#98 = DIRECTION ( 'NONE',  ( 2.731847993664263200E-016, 0.0000000000000000000, 1.000000000000000000 ) ) ;
#99 = DIRECTION ( 'NONE',  ( -1.000000000000000000, 0.0000000000000000000, 2.731847993664263200E-016 ) ) ;
#100 = CARTESIAN_POINT ( 'NONE',  ( 1.999999999999999300, 0.5000000000000000000, -2.000000000000000000 ) ) ;
#101 = PLANE ( 'NONE',  #10 ) ;
#102 = DIRECTION ( 'NONE',  ( 0.0000000000000000000, 0.0000000000000000000, -1.000000000000000000 ) ) ;
#103 = DIRECTION ( 'NONE',  ( 1.000000000000000000, -0.0000000000000000000, 0.0000000000000000000 ) ) ;
#104 = CARTESIAN_POINT ( 'NONE',  ( 0.0000000000000000000, 0.5000000000000000000, 0.0000000000000000000 ) ) ;
#105 = DIRECTION ( 'NONE',  ( 1.000000000000000000, -0.0000000000000000000, -6.123233995736766000E-017 ) ) ;
#106 = CARTESIAN_POINT ( 'NONE',  ( 2.000000000000000000, 0.0000000000000000000, -1.224646799147353200E-016 ) ) ;
#107 = LINE ( 'NONE', #106, #12 ) ;
#108 = DIRECTION ( 'NONE',  ( -0.0000000000000000000, -1.000000000000000000, -0.0000000000000000000 ) ) ;
#109 = CARTESIAN_POINT ( 'NONE',  ( 1.999999999999999300, 0.5000000000000000000, -2.000000000000000000 ) ) ;
#110 = LINE ( 'NONE', #109, #11 ) ;
#111 = PLANE ( 'NONE',  #13 ) ;
#112 = DIRECTION ( 'NONE',  ( -2.731847993664263200E-016, -0.0000000000000000000, -1.000000000000000000 ) ) ;
#113 = CARTESIAN_POINT ( 'NONE',  ( 1.999999999999999300, 0.5000000000000000000, -2.000000000000000000 ) ) ;
#114 = LINE ( 'NONE', #113, #5 ) ;
#115 = CARTESIAN_POINT ( 'NONE',  ( 0.0000000000000000000, 0.5000000000000000000, -2.000000000000000000 ) ) ;
#116 = CARTESIAN_POINT ( 'NONE',  ( 1.999999999999999300, 0.0000000000000000000, -2.000000000000000000 ) ) ;
#117 = CARTESIAN_POINT ( 'NONE',  ( 0.0000000000000000000, 0.0000000000000000000, -2.000000000000000000 ) ) ;
#118 = CARTESIAN_POINT ( 'NONE',  ( 1.999999999999999300, 0.5000000000000000000, -2.000000000000000000 ) ) ;
#119 = CARTESIAN_POINT ( 'NONE',  ( 2.000000000000000000, 0.5000000000000000000, -1.224646799147353200E-016 ) ) ;
#120 = CARTESIAN_POINT ( 'NONE',  ( 2.000000000000000000, 0.0000000000000000000, -1.224646799147353200E-016 ) ) ;
#121 = CARTESIAN_POINT ( 'NONE',  ( 0.0000000000000000000, 0.0000000000000000000, 0.0000000000000000000 ) ) ;
#122 = CARTESIAN_POINT ( 'NONE',  ( 0.0000000000000000000, 0.5000000000000000000, 0.0000000000000000000 ) ) ;
#123 = ORIENTED_EDGE ( 'NONE', *, *, #186, .F. ) ;
#124 = ORIENTED_EDGE ( 'NONE', *, *, #187, .F. ) ;
#125 = ORIENTED_EDGE ( 'NONE', *, *, #181, .F. ) ;
#126 = ORIENTED_EDGE ( 'NONE', *, *, #195, .F. ) ;
#127 = ORIENTED_EDGE ( 'NONE', *, *, #188, .T. ) ;
#128 = ORIENTED_EDGE ( 'NONE', *, *, #178, .T. ) ;
#129 = ORIENTED_EDGE ( 'NONE', *, *, #198, .T. ) ;
#130 = ORIENTED_EDGE ( 'NONE', *, *, #196, .T. ) ;
#131 = ORIENTED_EDGE ( 'NONE', *, *, #185, .T. ) ;
#132 = VERTEX_POINT ( 'NONE', #122 ) ;
#133 = VERTEX_POINT ( 'NONE', #121 ) ;
#134 = VERTEX_POINT ( 'NONE', #120 ) ;
#135 = VERTEX_POINT ( 'NONE', #119 ) ;
#136 = VERTEX_POINT ( 'NONE', #118 ) ;
#137 = VERTEX_POINT ( 'NONE', #117 ) ;
#138 = VERTEX_POINT ( 'NONE', #116 ) ;
#139 = VERTEX_POINT ( 'NONE', #115 ) ;
#140 = EDGE_LOOP ( 'NONE', ( #153, #151, #152, #150 ) ) ;
#141 = EDGE_LOOP ( 'NONE', ( #146, #80, #81, #79 ) ) ;
#142 = EDGE_LOOP ( 'NONE', ( #19, #34, #33, #154 ) ) ;
#143 = EDGE_LOOP ( 'NONE', ( #148, #147, #149, #130 ) ) ;
#144 = EDGE_LOOP ( 'NONE', ( #129, #128, #127, #131 ) ) ;
#145 = EDGE_LOOP ( 'NONE', ( #125, #124, #123, #126 ) ) ;
#146 = ORIENTED_EDGE ( 'NONE', *, *, #181, .T. ) ;
#147 = ORIENTED_EDGE ( 'NONE', *, *, #184, .F. ) ;
#148 = ORIENTED_EDGE ( 'NONE', *, *, #187, .T. ) ;
#149 = ORIENTED_EDGE ( 'NONE', *, *, #185, .F. ) ;
#150 = ORIENTED_EDGE ( 'NONE', *, *, #180, .T. ) ;
#151 = ORIENTED_EDGE ( 'NONE', *, *, #196, .F. ) ;
#152 = ORIENTED_EDGE ( 'NONE', *, *, #188, .F. ) ;
#153 = ORIENTED_EDGE ( 'NONE', *, *, #186, .T. ) ;
#154 = ORIENTED_EDGE ( 'NONE', *, *, #192, .T. ) ;
#155 = PRESENTATION_LAYER_ASSIGNMENT (  '', '', ( #163 ) ) ;
#156 = LENGTH_MEASURE_WITH_UNIT ( LENGTH_MEASURE( 0.02539999999999999900 ), #40 );
#157 = LENGTH_MEASURE_WITH_UNIT ( LENGTH_MEASURE( 0.02539999999999999900 ), #45 );
#158 = MECHANICAL_DESIGN_GEOMETRIC_PRESENTATION_REPRESENTATION (  '', ( #174 ), #209 ) ;
#159 = VECTOR ( 'NONE', #52, 39.37007874015748100 ) ;
#160 = PRESENTATION_LAYER_ASSIGNMENT (  '', '', ( #174 ) ) ;
#161 = VECTOR ( 'NONE', #55, 39.37007874015748100 ) ;
#162 = VECTOR ( 'NONE', #58, 39.37007874015748100 ) ;
#163 = STYLED_ITEM ( 'NONE', ( #24 ), #16 ) ;
#164 = VECTOR ( 'NONE', #65, 39.37007874015748100 ) ;
#165 = AXIS2_PLACEMENT_3D ( 'NONE', #63, #62, #61 ) ;
#166 = AXIS2_PLACEMENT_3D ( 'NONE', #70, #69, #68 ) ;
#167 = FACE_OUTER_BOUND ( 'NONE', #141, .T. ) ;
#168 = AXIS2_PLACEMENT_3D ( 'NONE', #74, #73, #72 ) ;
#169 = FACE_OUTER_BOUND ( 'NONE', #144, .T. ) ;
#170 = FACE_OUTER_BOUND ( 'NONE', #145, .T. ) ;
#171 = AXIS2_PLACEMENT_3D ( 'NONE', #78, #77, #76 ) ;
#172 = VECTOR ( 'NONE', #84, 39.37007874015748100 ) ;
#173 = VECTOR ( 'NONE', #87, 39.37007874015748100 ) ;
#174 = STYLED_ITEM ( 'NONE', ( #46 ), #204 ) ;
#175 = VECTOR ( 'NONE', #90, 39.37007874015748100 ) ;
#176 = VECTOR ( 'NONE', #91, 39.37007874015748100 ) ;
#177 = VECTOR ( 'NONE', #95, 39.37007874015748100 ) ;
#178 = EDGE_CURVE ( 'NONE', #135, #136, #114, .T. ) ;
#179 = PRODUCT_DEFINITION ( 'UNKNOWN', '', #208, #202 ) ;
#180 = EDGE_CURVE ( 'NONE', #136, #138, #110, .T. ) ;
#181 = EDGE_CURVE ( 'NONE', #133, #134, #107, .T. ) ;
#182 = ADVANCED_FACE ( 'NONE', ( #6 ), #111, .F. ) ;
#183 = ADVANCED_FACE ( 'NONE', ( #8 ), #101, .F. ) ;
#184 = EDGE_CURVE ( 'NONE', #132, #133, #97, .T. ) ;
#185 = EDGE_CURVE ( 'NONE', #139, #132, #93, .T. ) ;
#186 = EDGE_CURVE ( 'NONE', #138, #137, #88, .T. ) ;
#187 = EDGE_CURVE ( 'NONE', #137, #133, #85, .T. ) ;
#188 = EDGE_CURVE ( 'NONE', #136, #139, #82, .T. ) ;
#189 = ADVANCED_FACE ( 'NONE', ( #9 ), #94, .F. ) ;
#190 = ADVANCED_FACE ( 'NONE', ( #170 ), #75, .T. ) ;
#191 = ADVANCED_FACE ( 'NONE', ( #169 ), #71, .F. ) ;
#192 = EDGE_CURVE ( 'NONE', #135, #134, #67, .T. ) ;
#193 = COLOUR_RGB ( '',0.5686274509803921400, 0.5686274509803921400, 0.5882352941176470800 ) ;
#194 = ADVANCED_FACE ( 'NONE', ( #167 ), #64, .F. ) ;
#195 = EDGE_CURVE ( 'NONE', #134, #138, #60, .T. ) ;
#196 = EDGE_CURVE ( 'NONE', #139, #137, #57, .T. ) ;
#197 = COLOUR_RGB ( '',0.5686274509803921400, 0.5686274509803921400, 0.5882352941176470800 ) ;
#198 = EDGE_CURVE ( 'NONE', #132, #135, #54, .T. ) ;
#199 = PRODUCT_RELATED_PRODUCT_CATEGORY ( 'part', '', ( #2 ) ) ;
#200 = APPLICATION_CONTEXT ( 'automotive_design' ) ;
#201 = APPLICATION_CONTEXT ( 'automotive_design' ) ;
#202 = PRODUCT_DEFINITION_CONTEXT ( 'detailed design', #200, 'design' ) ;
#203 = PRODUCT_DEFINITION_SHAPE ( 'NONE', 'NONE',  #179 ) ;
#204 = MANIFOLD_SOLID_BREP ( 'Boss-Extrude1', #7 ) ;
#205 = MECHANICAL_DESIGN_GEOMETRIC_PRESENTATION_REPRESENTATION (  '', ( #163 ), #211 ) ;
#206 = LENGTH_MEASURE_WITH_UNIT ( LENGTH_MEASURE( 0.02539999999999999900 ), #22 );
#207 = AXIS2_PLACEMENT_3D ( 'NONE', #37, #32, #35 ) ;
#208 = PRODUCT_DEFINITION_FORMATION_WITH_SPECIFIED_SOURCE ( 'ANY', '', #2, .NOT_KNOWN. ) ;
#209 =( GEOMETRIC_REPRESENTATION_CONTEXT ( 3 ) GLOBAL_UNCERTAINTY_ASSIGNED_CONTEXT ( ( #14 ) ) GLOBAL_UNIT_ASSIGNED_CONTEXT ( ( #44, #43, #42 ) ) REPRESENTATION_CONTEXT ( 'NONE', 'WORKASPACE' ) );
#210 =( GEOMETRIC_REPRESENTATION_CONTEXT ( 3 ) GLOBAL_UNCERTAINTY_ASSIGNED_CONTEXT ( ( #15 ) ) GLOBAL_UNIT_ASSIGNED_CONTEXT ( ( #41, #39, #36 ) ) REPRESENTATION_CONTEXT ( 'NONE', 'WORKASPACE' ) );
#211 =( GEOMETRIC_REPRESENTATION_CONTEXT ( 3 ) GLOBAL_UNCERTAINTY_ASSIGNED_CONTEXT ( ( #17 ) ) GLOBAL_UNIT_ASSIGNED_CONTEXT ( ( #20, #18, #21 ) ) REPRESENTATION_CONTEXT ( 'NONE', 'WORKASPACE' ) );
ENDSEC;
END-ISO-10303-21;
