ISO-10303-21;
HEADER;
FILE_DESCRIPTION (( 'STEP AP214' ),
    '1' );
FILE_NAME ('P125DF.step',
    '2012-04-20T21:00:50',
    ( '' ),
    ( '' ),
    'SwSTEP 2.0',
    'SolidWorks 2012',
    '' );
FILE_SCHEMA (( 'AUTOMOTIVE_DESIGN' ));
ENDSEC;

DATA;
#1 = DIMENSIONAL_EXPONENTS ( 1.000000000000000000, 0.0000000000000000000, 0.0000000000000000000, 0.0000000000000000000, 0.0000000000000000000, 0.0000000000000000000, 0.0000000000000000000 ) ;
#2 = DIMENSIONAL_EXPONENTS ( 1.000000000000000000, 0.0000000000000000000, 0.0000000000000000000, 0.0000000000000000000, 0.0000000000000000000, 0.0000000000000000000, 0.0000000000000000000 ) ;
#3 = PRODUCT ( 'P125DF', 'P125DF', '', ( #189 ) ) ;
#4 = DIMENSIONAL_EXPONENTS ( 1.000000000000000000, 0.0000000000000000000, 0.0000000000000000000, 0.0000000000000000000, 0.0000000000000000000, 0.0000000000000000000, 0.0000000000000000000 ) ;
#5 = APPLICATION_CONTEXT ( 'automotive_design' ) ;
#6 = APPLICATION_CONTEXT ( 'automotive_design' ) ;
#7 =( GEOMETRIC_REPRESENTATION_CONTEXT ( 3 ) GLOBAL_UNCERTAINTY_ASSIGNED_CONTEXT ( ( #152 ) ) GLOBAL_UNIT_ASSIGNED_CONTEXT ( ( #27, #95, #94 ) ) REPRESENTATION_CONTEXT ( 'NONE', 'WORKASPACE' ) );
#8 =( GEOMETRIC_REPRESENTATION_CONTEXT ( 3 ) GLOBAL_UNCERTAINTY_ASSIGNED_CONTEXT ( ( #151 ) ) GLOBAL_UNIT_ASSIGNED_CONTEXT ( ( #28, #25, #22 ) ) REPRESENTATION_CONTEXT ( 'NONE', 'WORKASPACE' ) );
#9 =( GEOMETRIC_REPRESENTATION_CONTEXT ( 3 ) GLOBAL_UNCERTAINTY_ASSIGNED_CONTEXT ( ( #154 ) ) GLOBAL_UNIT_ASSIGNED_CONTEXT ( ( #26, #52, #30 ) ) REPRESENTATION_CONTEXT ( 'NONE', 'WORKASPACE' ) );
#10 = VECTOR ( 'NONE', #91, 39.37007874015748100 ) ;
#11 = VECTOR ( 'NONE', #87, 39.37007874015748100 ) ;
#12 = CLOSED_SHELL ( 'NONE', ( #205, #204, #203, #201, #200, #199 ) ) ;
#13 = FACE_OUTER_BOUND ( 'NONE', #134, .T. ) ;
#14 = STYLED_ITEM ( 'NONE', ( #97 ), #184 ) ;
#15 = PRESENTATION_LAYER_ASSIGNMENT (  '', '', ( #14 ) ) ;
#16 = MECHANICAL_DESIGN_GEOMETRIC_PRESENTATION_REPRESENTATION (  '', ( #14 ), #7 ) ;
#17 = LENGTH_MEASURE_WITH_UNIT ( LENGTH_MEASURE( 0.02539999999999999900 ), #96 );
#18 =( LENGTH_UNIT ( ) NAMED_UNIT ( * ) SI_UNIT ( $, .METRE. ) );
#19 = PRESENTATION_STYLE_ASSIGNMENT (( #43 ) ) ;
#20 = FILL_AREA_STYLE_COLOUR ( '', #196 ) ;
#21 = SURFACE_STYLE_FILL_AREA ( #24 ) ;
#22 =( NAMED_UNIT ( * ) SI_UNIT ( $, .STERADIAN. ) SOLID_ANGLE_UNIT ( ) );
#23 = CARTESIAN_POINT ( 'NONE',  ( 0.0000000000000000000, 0.0000000000000000000, 0.0000000000000000000 ) ) ;
#24 = FILL_AREA_STYLE ('',( #20 ) ) ;
#25 =( NAMED_UNIT ( * ) PLANE_ANGLE_UNIT ( ) SI_UNIT ( $, .RADIAN. ) );
#26 =( CONVERSION_BASED_UNIT ( 'INCH', #176 ) LENGTH_UNIT ( ) NAMED_UNIT ( #4 ) );
#27 =( CONVERSION_BASED_UNIT ( 'INCH', #17 ) LENGTH_UNIT ( ) NAMED_UNIT ( #2 ) );
#28 =( CONVERSION_BASED_UNIT ( 'INCH', #156 ) LENGTH_UNIT ( ) NAMED_UNIT ( #1 ) );
#29 =( LENGTH_UNIT ( ) NAMED_UNIT ( * ) SI_UNIT ( $, .METRE. ) );
#30 =( NAMED_UNIT ( * ) SI_UNIT ( $, .STERADIAN. ) SOLID_ANGLE_UNIT ( ) );
#31 = DIRECTION ( 'NONE',  ( 1.000000000000000000, -0.0000000000000000000, -3.061616997868381800E-017 ) ) ;
#32 = CARTESIAN_POINT ( 'NONE',  ( 0.5000000000000000000, 0.0000000000000000000, -1.530808498934190900E-017 ) ) ;
#33 = CARTESIAN_POINT ( 'NONE',  ( 0.0000000000000000000, 0.0000000000000000000, -0.7500000000000004400 ) ) ;
#34 = DIRECTION ( 'NONE',  ( -1.000000000000000000, -0.0000000000000000000, -0.0000000000000000000 ) ) ;
#35 = LINE ( 'NONE', #33, #168 ) ;
#36 = LINE ( 'NONE', #40, #171 ) ;
#37 = SURFACE_SIDE_STYLE ('',( #21 ) ) ;
#38 = DIRECTION ( 'NONE',  ( -0.0000000000000000000, -1.000000000000000000, -0.0000000000000000000 ) ) ;
#39 = DIRECTION ( 'NONE',  ( -1.821231995776174200E-016, -0.0000000000000000000, -1.000000000000000000 ) ) ;
#40 = CARTESIAN_POINT ( 'NONE',  ( 0.0000000000000000000, 0.1250000000000000000, -0.7500000000000004400 ) ) ;
#41 = CARTESIAN_POINT ( 'NONE',  ( 0.4999999999999998300, 0.1250000000000000000, -0.7500000000000004400 ) ) ;
#42 = LINE ( 'NONE', #41, #174 ) ;
#43 = SURFACE_STYLE_USAGE ( .BOTH. , #37 ) ;
#44 = LINE ( 'NONE', #32, #169 ) ;
#45 = DIRECTION ( 'NONE',  ( -0.0000000000000000000, -1.000000000000000000, -0.0000000000000000000 ) ) ;
#46 = CARTESIAN_POINT ( 'NONE',  ( 0.5000000000000000000, 0.1250000000000000000, -1.530808498934190900E-017 ) ) ;
#47 = LINE ( 'NONE', #46, #175 ) ;
#48 = DIRECTION ( 'NONE',  ( -1.000000000000000000, 0.0000000000000000000, 3.061616997868381800E-017 ) ) ;
#49 = DIRECTION ( 'NONE',  ( -3.061616997868381800E-017, 0.0000000000000000000, -1.000000000000000000 ) ) ;
#50 = CARTESIAN_POINT ( 'NONE',  ( 0.5000000000000000000, 0.1250000000000000000, -1.530808498934190900E-017 ) ) ;
#51 = PLANE ( 'NONE',  #182 ) ;
#52 =( NAMED_UNIT ( * ) PLANE_ANGLE_UNIT ( ) SI_UNIT ( $, .RADIAN. ) );
#53 = DIRECTION ( 'NONE',  ( 1.821231995776174200E-016, 0.0000000000000000000, 1.000000000000000000 ) ) ;
#54 = DIRECTION ( 'NONE',  ( -1.000000000000000000, 0.0000000000000000000, 1.821231995776174200E-016 ) ) ;
#55 = CARTESIAN_POINT ( 'NONE',  ( 0.4999999999999998300, 0.1250000000000000000, -0.7500000000000004400 ) ) ;
#56 = PLANE ( 'NONE',  #157 ) ;
#57 = DIRECTION ( 'NONE',  ( 1.000000000000000000, 0.0000000000000000000, -0.0000000000000000000 ) ) ;
#58 = DIRECTION ( 'NONE',  ( 0.0000000000000000000, 0.0000000000000000000, 1.000000000000000000 ) ) ;
#59 = CARTESIAN_POINT ( 'NONE',  ( 0.0000000000000000000, 0.1250000000000000000, -0.7500000000000004400 ) ) ;
#60 = PLANE ( 'NONE',  #164 ) ;
#61 = DIRECTION ( 'NONE',  ( -0.0000000000000000000, -0.0000000000000000000, 1.000000000000000000 ) ) ;
#62 = CARTESIAN_POINT ( 'NONE',  ( 0.0000000000000000000, 0.0000000000000000000, 0.0000000000000000000 ) ) ;
#63 = LINE ( 'NONE', #62, #166 ) ;
#64 = DIRECTION ( 'NONE',  ( 0.0000000000000000000, 0.0000000000000000000, -1.000000000000000000 ) ) ;
#65 = DIRECTION ( 'NONE',  ( 1.000000000000000000, -0.0000000000000000000, 0.0000000000000000000 ) ) ;
#66 = CARTESIAN_POINT ( 'NONE',  ( 0.0000000000000000000, 0.1250000000000000000, 0.0000000000000000000 ) ) ;
#67 = PLANE ( 'NONE',  #158 ) ;
#68 = DIRECTION ( 'NONE',  ( 0.0000000000000000000, 0.0000000000000000000, -1.000000000000000000 ) ) ;
#69 = DIRECTION ( 'NONE',  ( 0.0000000000000000000, -1.000000000000000000, -0.0000000000000000000 ) ) ;
#70 = CARTESIAN_POINT ( 'NONE',  ( 0.0000000000000000000, 0.1250000000000000000, 0.0000000000000000000 ) ) ;
#71 = PLANE ( 'NONE',  #162 ) ;
#72 = DIRECTION ( 'NONE',  ( 0.0000000000000000000, 0.0000000000000000000, -1.000000000000000000 ) ) ;
#73 = DIRECTION ( 'NONE',  ( 0.0000000000000000000, -1.000000000000000000, -0.0000000000000000000 ) ) ;
#74 = CARTESIAN_POINT ( 'NONE',  ( 0.0000000000000000000, 0.0000000000000000000, 0.0000000000000000000 ) ) ;
#75 = DIRECTION ( 'NONE',  ( -0.0000000000000000000, -0.0000000000000000000, 1.000000000000000000 ) ) ;
#76 = CARTESIAN_POINT ( 'NONE',  ( 0.0000000000000000000, 0.1250000000000000000, 0.0000000000000000000 ) ) ;
#77 = LINE ( 'NONE', #76, #172 ) ;
#78 = DIRECTION ( 'NONE',  ( -1.821231995776174200E-016, -0.0000000000000000000, -1.000000000000000000 ) ) ;
#79 = CARTESIAN_POINT ( 'NONE',  ( 0.4999999999999998300, 0.0000000000000000000, -0.7500000000000004400 ) ) ;
#80 = LINE ( 'NONE', #79, #159 ) ;
#81 = DIRECTION ( 'NONE',  ( -0.0000000000000000000, -1.000000000000000000, -0.0000000000000000000 ) ) ;
#82 = CARTESIAN_POINT ( 'NONE',  ( 0.4999999999999998300, 0.1250000000000000000, -0.7500000000000004400 ) ) ;
#83 = LINE ( 'NONE', #82, #180 ) ;
#84 = DIRECTION ( 'NONE',  ( -0.0000000000000000000, -1.000000000000000000, -0.0000000000000000000 ) ) ;
#85 = CARTESIAN_POINT ( 'NONE',  ( 0.0000000000000000000, 0.1250000000000000000, 0.0000000000000000000 ) ) ;
#86 = LINE ( 'NONE', #85, #181 ) ;
#87 = DIRECTION ( 'NONE',  ( -1.000000000000000000, -0.0000000000000000000, -0.0000000000000000000 ) ) ;
#88 = CARTESIAN_POINT ( 'NONE',  ( 0.0000000000000000000, 0.1250000000000000000, -0.7500000000000004400 ) ) ;
#89 = LINE ( 'NONE', #88, #11 ) ;
#90 = PLANE ( 'NONE',  #170 ) ;
#91 = DIRECTION ( 'NONE',  ( 1.000000000000000000, -0.0000000000000000000, -3.061616997868381800E-017 ) ) ;
#92 = CARTESIAN_POINT ( 'NONE',  ( 0.5000000000000000000, 0.1250000000000000000, -1.530808498934190900E-017 ) ) ;
#93 = LINE ( 'NONE', #92, #10 ) ;
#94 =( NAMED_UNIT ( * ) SI_UNIT ( $, .STERADIAN. ) SOLID_ANGLE_UNIT ( ) );
#95 =( NAMED_UNIT ( * ) PLANE_ANGLE_UNIT ( ) SI_UNIT ( $, .RADIAN. ) );
#96 =( LENGTH_UNIT ( ) NAMED_UNIT ( * ) SI_UNIT ( $, .METRE. ) );
#97 = PRESENTATION_STYLE_ASSIGNMENT (( #98 ) ) ;
#98 = SURFACE_STYLE_USAGE ( .BOTH. , #99 ) ;
#99 = SURFACE_SIDE_STYLE ('',( #100 ) ) ;
#100 = SURFACE_STYLE_FILL_AREA ( #101 ) ;
#101 = FILL_AREA_STYLE ('',( #102 ) ) ;
#102 = FILL_AREA_STYLE_COLOUR ( '', #192 ) ;
#103 = CARTESIAN_POINT ( 'NONE',  ( 0.5000000000000000000, 0.1250000000000000000, -1.530808498934190900E-017 ) ) ;
#104 = CARTESIAN_POINT ( 'NONE',  ( 0.0000000000000000000, 0.1250000000000000000, -0.7500000000000004400 ) ) ;
#105 = CARTESIAN_POINT ( 'NONE',  ( 0.0000000000000000000, 0.0000000000000000000, -0.7500000000000004400 ) ) ;
#106 = CARTESIAN_POINT ( 'NONE',  ( 0.4999999999999998300, 0.1250000000000000000, -0.7500000000000004400 ) ) ;
#107 = CARTESIAN_POINT ( 'NONE',  ( 0.4999999999999998300, 0.0000000000000000000, -0.7500000000000004400 ) ) ;
#108 = CARTESIAN_POINT ( 'NONE',  ( 0.0000000000000000000, 0.1250000000000000000, 0.0000000000000000000 ) ) ;
#109 = CARTESIAN_POINT ( 'NONE',  ( 0.5000000000000000000, 0.0000000000000000000, -1.530808498934190900E-017 ) ) ;
#110 = CARTESIAN_POINT ( 'NONE',  ( 0.0000000000000000000, 0.0000000000000000000, 0.0000000000000000000 ) ) ;
#111 = ORIENTED_EDGE ( 'NONE', *, *, #202, .T. ) ;
#112 = ORIENTED_EDGE ( 'NONE', *, *, #198, .F. ) ;
#113 = ORIENTED_EDGE ( 'NONE', *, *, #194, .T. ) ;
#114 = ORIENTED_EDGE ( 'NONE', *, *, #209, .F. ) ;
#115 = ORIENTED_EDGE ( 'NONE', *, *, #191, .F. ) ;
#116 = ORIENTED_EDGE ( 'NONE', *, *, #210, .T. ) ;
#117 = ORIENTED_EDGE ( 'NONE', *, *, #206, .T. ) ;
#118 = DIRECTION ( 'NONE',  ( 0.0000000000000000000, 0.0000000000000000000, 1.000000000000000000 ) ) ;
#119 = ORIENTED_EDGE ( 'NONE', *, *, #207, .T. ) ;
#120 = DIRECTION ( 'NONE',  ( 1.000000000000000000, 0.0000000000000000000, 0.0000000000000000000 ) ) ;
#121 = VERTEX_POINT ( 'NONE', #110 ) ;
#122 = VERTEX_POINT ( 'NONE', #109 ) ;
#123 = VERTEX_POINT ( 'NONE', #108 ) ;
#124 = VERTEX_POINT ( 'NONE', #107 ) ;
#125 = VERTEX_POINT ( 'NONE', #106 ) ;
#126 = VERTEX_POINT ( 'NONE', #105 ) ;
#127 = VERTEX_POINT ( 'NONE', #104 ) ;
#128 = VERTEX_POINT ( 'NONE', #103 ) ;
#129 = EDGE_LOOP ( 'NONE', ( #147, #145, #146, #117 ) ) ;
#130 = EDGE_LOOP ( 'NONE', ( #116, #114, #115, #113 ) ) ;
#131 = EDGE_LOOP ( 'NONE', ( #119, #149, #150, #148 ) ) ;
#132 = EDGE_LOOP ( 'NONE', ( #111, #144, #112, #142 ) ) ;
#133 = EDGE_LOOP ( 'NONE', ( #141, #140, #139, #143 ) ) ;
#134 = EDGE_LOOP ( 'NONE', ( #137, #136, #135, #138 ) ) ;
#135 = ORIENTED_EDGE ( 'NONE', *, *, #210, .F. ) ;
#136 = ORIENTED_EDGE ( 'NONE', *, *, #202, .F. ) ;
#137 = ORIENTED_EDGE ( 'NONE', *, *, #207, .F. ) ;
#138 = ORIENTED_EDGE ( 'NONE', *, *, #197, .F. ) ;
#139 = ORIENTED_EDGE ( 'NONE', *, *, #191, .T. ) ;
#140 = ORIENTED_EDGE ( 'NONE', *, *, #208, .T. ) ;
#141 = ORIENTED_EDGE ( 'NONE', *, *, #190, .T. ) ;
#142 = ORIENTED_EDGE ( 'NONE', *, *, #209, .T. ) ;
#143 = ORIENTED_EDGE ( 'NONE', *, *, #198, .T. ) ;
#144 = ORIENTED_EDGE ( 'NONE', *, *, #193, .F. ) ;
#145 = ORIENTED_EDGE ( 'NONE', *, *, #194, .F. ) ;
#146 = ORIENTED_EDGE ( 'NONE', *, *, #208, .F. ) ;
#147 = ORIENTED_EDGE ( 'NONE', *, *, #197, .T. ) ;
#148 = ORIENTED_EDGE ( 'NONE', *, *, #193, .T. ) ;
#149 = ORIENTED_EDGE ( 'NONE', *, *, #206, .F. ) ;
#150 = ORIENTED_EDGE ( 'NONE', *, *, #190, .F. ) ;
#151 = UNCERTAINTY_MEASURE_WITH_UNIT (LENGTH_MEASURE( 1.000000000000000100E-005 ), #28, 'distance_accuracy_value', 'NONE');
#152 = UNCERTAINTY_MEASURE_WITH_UNIT (LENGTH_MEASURE( 1.000000000000000100E-005 ), #27, 'distance_accuracy_value', 'NONE');
#153 = ADVANCED_BREP_SHAPE_REPRESENTATION ( 'P125DF', ( #184, #155 ), #8 ) ;
#154 = UNCERTAINTY_MEASURE_WITH_UNIT (LENGTH_MEASURE( 1.000000000000000100E-005 ), #26, 'distance_accuracy_value', 'NONE');
#155 = AXIS2_PLACEMENT_3D ( 'NONE', #23, #118, #120 ) ;
#156 = LENGTH_MEASURE_WITH_UNIT ( LENGTH_MEASURE( 0.02539999999999999900 ), #29 );
#157 = AXIS2_PLACEMENT_3D ( 'NONE', #55, #54, #53 ) ;
#158 = AXIS2_PLACEMENT_3D ( 'NONE', #66, #65, #64 ) ;
#159 = VECTOR ( 'NONE', #78, 39.37007874015748100 ) ;
#160 = FACE_OUTER_BOUND ( 'NONE', #130, .T. ) ;
#161 = PRESENTATION_LAYER_ASSIGNMENT (  '', '', ( #178 ) ) ;
#162 = AXIS2_PLACEMENT_3D ( 'NONE', #70, #69, #68 ) ;
#163 = FACE_OUTER_BOUND ( 'NONE', #132, .T. ) ;
#164 = AXIS2_PLACEMENT_3D ( 'NONE', #59, #58, #57 ) ;
#165 = FACE_OUTER_BOUND ( 'NONE', #133, .T. ) ;
#166 = VECTOR ( 'NONE', #61, 39.37007874015748100 ) ;
#167 = FACE_OUTER_BOUND ( 'NONE', #131, .T. ) ;
#168 = VECTOR ( 'NONE', #34, 39.37007874015748100 ) ;
#169 = VECTOR ( 'NONE', #31, 39.37007874015748100 ) ;
#170 = AXIS2_PLACEMENT_3D ( 'NONE', #74, #73, #72 ) ;
#171 = VECTOR ( 'NONE', #38, 39.37007874015748100 ) ;
#172 = VECTOR ( 'NONE', #75, 39.37007874015748100 ) ;
#173 = PRODUCT_DEFINITION_FORMATION_WITH_SPECIFIED_SOURCE ( 'ANY', '', #3, .NOT_KNOWN. ) ;
#174 = VECTOR ( 'NONE', #39, 39.37007874015748100 ) ;
#175 = VECTOR ( 'NONE', #45, 39.37007874015748100 ) ;
#176 = LENGTH_MEASURE_WITH_UNIT ( LENGTH_MEASURE( 0.02539999999999999900 ), #18 );
#177 = MECHANICAL_DESIGN_GEOMETRIC_PRESENTATION_REPRESENTATION (  '', ( #178 ), #9 ) ;
#178 = STYLED_ITEM ( 'NONE', ( #19 ), #153 ) ;
#179 = FACE_OUTER_BOUND ( 'NONE', #129, .T. ) ;
#180 = VECTOR ( 'NONE', #81, 39.37007874015748100 ) ;
#181 = VECTOR ( 'NONE', #84, 39.37007874015748100 ) ;
#182 = AXIS2_PLACEMENT_3D ( 'NONE', #50, #49, #48 ) ;
#183 = PRODUCT_DEFINITION_CONTEXT ( 'detailed design', #5, 'design' ) ;
#184 = MANIFOLD_SOLID_BREP ( 'Boss-Extrude1', #12 ) ;
#185 = PRODUCT_DEFINITION_SHAPE ( 'NONE', 'NONE',  #211 ) ;
#186 = SHAPE_DEFINITION_REPRESENTATION ( #185, #153 ) ;
#187 = APPLICATION_PROTOCOL_DEFINITION ( 'draft international standard', 'automotive_design', 1998, #6 ) ;
#188 = APPLICATION_PROTOCOL_DEFINITION ( 'draft international standard', 'automotive_design', 1998, #5 ) ;
#189 = PRODUCT_CONTEXT ( 'NONE', #6, 'mechanical' ) ;
#190 = EDGE_CURVE ( 'NONE', #123, #128, #93, .T. ) ;
#191 = EDGE_CURVE ( 'NONE', #125, #127, #89, .T. ) ;
#192 = COLOUR_RGB ( '',0.5686274509803921400, 0.5686274509803921400, 0.5882352941176470800 ) ;
#193 = EDGE_CURVE ( 'NONE', #123, #121, #86, .T. ) ;
#194 = EDGE_CURVE ( 'NONE', #125, #124, #83, .T. ) ;
#195 = PRODUCT_RELATED_PRODUCT_CATEGORY ( 'part', '', ( #3 ) ) ;
#196 = COLOUR_RGB ( '',0.5686274509803921400, 0.5686274509803921400, 0.5882352941176470800 ) ;
#197 = EDGE_CURVE ( 'NONE', #122, #124, #80, .T. ) ;
#198 = EDGE_CURVE ( 'NONE', #127, #123, #77, .T. ) ;
#199 = ADVANCED_FACE ( 'NONE', ( #13 ), #90, .T. ) ;
#200 = ADVANCED_FACE ( 'NONE', ( #165 ), #71, .F. ) ;
#201 = ADVANCED_FACE ( 'NONE', ( #163 ), #67, .F. ) ;
#202 = EDGE_CURVE ( 'NONE', #126, #121, #63, .T. ) ;
#203 = ADVANCED_FACE ( 'NONE', ( #160 ), #60, .F. ) ;
#204 = ADVANCED_FACE ( 'NONE', ( #179 ), #56, .F. ) ;
#205 = ADVANCED_FACE ( 'NONE', ( #167 ), #51, .F. ) ;
#206 = EDGE_CURVE ( 'NONE', #128, #122, #47, .T. ) ;
#207 = EDGE_CURVE ( 'NONE', #121, #122, #44, .T. ) ;
#208 = EDGE_CURVE ( 'NONE', #128, #125, #42, .T. ) ;
#209 = EDGE_CURVE ( 'NONE', #127, #126, #36, .T. ) ;
#210 = EDGE_CURVE ( 'NONE', #124, #126, #35, .T. ) ;
#211 = PRODUCT_DEFINITION ( 'UNKNOWN', '', #173, #183 ) ;
ENDSEC;
END-ISO-10303-21;
