ISO-10303-21;
HEADER;
FILE_DESCRIPTION (( 'STEP AP214' ),
    '1' );
FILE_NAME ('P2000PX.step',
    '2012-04-20T21:01:07',
    ( '' ),
    ( '' ),
    'SwSTEP 2.0',
    'SolidWorks 2012',
    '' );
FILE_SCHEMA (( 'AUTOMOTIVE_DESIGN' ));
ENDSEC;

DATA;
#1 = PRODUCT ( 'P2000PX', 'P2000PX', '', ( #18 ) ) ;
#2 = DIMENSIONAL_EXPONENTS ( 1.000000000000000000, 0.0000000000000000000, 0.0000000000000000000, 0.0000000000000000000, 0.0000000000000000000, 0.0000000000000000000, 0.0000000000000000000 ) ;
#3 = DIMENSIONAL_EXPONENTS ( 1.000000000000000000, 0.0000000000000000000, 0.0000000000000000000, 0.0000000000000000000, 0.0000000000000000000, 0.0000000000000000000, 0.0000000000000000000 ) ;
#4 = DIMENSIONAL_EXPONENTS ( 1.000000000000000000, 0.0000000000000000000, 0.0000000000000000000, 0.0000000000000000000, 0.0000000000000000000, 0.0000000000000000000, 0.0000000000000000000 ) ;
#5 = AXIS2_PLACEMENT_3D ( 'NONE', #90, #89, #88 ) ;
#6 = VECTOR ( 'NONE', #97, 39.37007874015748100 ) ;
#7 = AXIS2_PLACEMENT_3D ( 'NONE', #86, #85, #84 ) ;
#8 = VECTOR ( 'NONE', #91, 39.37007874015748100 ) ;
#9 = AXIS2_PLACEMENT_3D ( 'NONE', #82, #81, #80 ) ;
#10 = FACE_OUTER_BOUND ( 'NONE', #135, .T. ) ;
#11 = FACE_OUTER_BOUND ( 'NONE', #136, .T. ) ;
#12 = FACE_OUTER_BOUND ( 'NONE', #133, .T. ) ;
#13 = FACE_OUTER_BOUND ( 'NONE', #134, .T. ) ;
#14 = CLOSED_SHELL ( 'NONE', ( #155, #151, #154, #164, #165, #166 ) ) ;
#15 = APPLICATION_CONTEXT ( 'automotive_design' ) ;
#16 = APPLICATION_CONTEXT ( 'automotive_design' ) ;
#17 = APPLICATION_PROTOCOL_DEFINITION ( 'draft international standard', 'automotive_design', 1998, #16 ) ;
#18 = PRODUCT_CONTEXT ( 'NONE', #15, 'mechanical' ) ;
#19 =( NAMED_UNIT ( * ) SI_UNIT ( $, .STERADIAN. ) SOLID_ANGLE_UNIT ( ) );
#20 =( NAMED_UNIT ( * ) PLANE_ANGLE_UNIT ( ) SI_UNIT ( $, .RADIAN. ) );
#21 =( CONVERSION_BASED_UNIT ( 'INCH', #178 ) LENGTH_UNIT ( ) NAMED_UNIT ( #2 ) );
#22 =( LENGTH_UNIT ( ) NAMED_UNIT ( * ) SI_UNIT ( $, .METRE. ) );
#23 = SURFACE_STYLE_FILL_AREA ( #25 ) ;
#24 = SURFACE_SIDE_STYLE ('',( #23 ) ) ;
#25 = FILL_AREA_STYLE ('',( #49 ) ) ;
#26 =( NAMED_UNIT ( * ) SI_UNIT ( $, .STERADIAN. ) SOLID_ANGLE_UNIT ( ) );
#27 =( NAMED_UNIT ( * ) PLANE_ANGLE_UNIT ( ) SI_UNIT ( $, .RADIAN. ) );
#28 =( CONVERSION_BASED_UNIT ( 'INCH', #180 ) LENGTH_UNIT ( ) NAMED_UNIT ( #3 ) );
#29 = SURFACE_STYLE_USAGE ( .BOTH. , #32 ) ;
#30 =( LENGTH_UNIT ( ) NAMED_UNIT ( * ) SI_UNIT ( $, .METRE. ) );
#31 = SURFACE_STYLE_USAGE ( .BOTH. , #24 ) ;
#32 = SURFACE_SIDE_STYLE ('',( #33 ) ) ;
#33 = SURFACE_STYLE_FILL_AREA ( #34 ) ;
#34 = FILL_AREA_STYLE ('',( #36 ) ) ;
#35 = PRESENTATION_STYLE_ASSIGNMENT (( #29 ) ) ;
#36 = FILL_AREA_STYLE_COLOUR ( '', #162 ) ;
#37 = DIRECTION ( 'NONE',  ( -0.0000000000000000000, -1.000000000000000000, -0.0000000000000000000 ) ) ;
#38 = CARTESIAN_POINT ( 'NONE',  ( 0.0000000000000000000, 2.000000000000000000, -3.000000000000000400 ) ) ;
#39 = LINE ( 'NONE', #38, #183 ) ;
#40 = DIRECTION ( 'NONE',  ( -9.106159978880878600E-017, -0.0000000000000000000, -1.000000000000000000 ) ) ;
#41 = CARTESIAN_POINT ( 'NONE',  ( 1.999999999999999800, 2.000000000000000000, -3.000000000000000400 ) ) ;
#42 = LINE ( 'NONE', #41, #187 ) ;
#43 = DIRECTION ( 'NONE',  ( -0.0000000000000000000, -0.0000000000000000000, 1.000000000000000000 ) ) ;
#44 = CARTESIAN_POINT ( 'NONE',  ( 0.0000000000000000000, 2.000000000000000000, 0.0000000000000000000 ) ) ;
#45 = LINE ( 'NONE', #44, #186 ) ;
#46 = DIRECTION ( 'NONE',  ( 0.0000000000000000000, 0.0000000000000000000, -1.000000000000000000 ) ) ;
#47 = DIRECTION ( 'NONE',  ( 0.0000000000000000000, -1.000000000000000000, -0.0000000000000000000 ) ) ;
#48 = CARTESIAN_POINT ( 'NONE',  ( 0.0000000000000000000, 0.0000000000000000000, 0.0000000000000000000 ) ) ;
#49 = FILL_AREA_STYLE_COLOUR ( '', #153 ) ;
#50 = PLANE ( 'NONE',  #188 ) ;
#51 = DIRECTION ( 'NONE',  ( 0.0000000000000000000, 0.0000000000000000000, -1.000000000000000000 ) ) ;
#52 = DIRECTION ( 'NONE',  ( 0.0000000000000000000, -1.000000000000000000, -0.0000000000000000000 ) ) ;
#53 = CARTESIAN_POINT ( 'NONE',  ( 0.0000000000000000000, 2.000000000000000000, 0.0000000000000000000 ) ) ;
#54 = PLANE ( 'NONE',  #190 ) ;
#55 = DIRECTION ( 'NONE',  ( 0.0000000000000000000, 0.0000000000000000000, -1.000000000000000000 ) ) ;
#56 = DIRECTION ( 'NONE',  ( 1.000000000000000000, -0.0000000000000000000, 0.0000000000000000000 ) ) ;
#57 = CARTESIAN_POINT ( 'NONE',  ( 0.0000000000000000000, 2.000000000000000000, 0.0000000000000000000 ) ) ;
#58 = DIRECTION ( 'NONE',  ( -0.0000000000000000000, -1.000000000000000000, -0.0000000000000000000 ) ) ;
#59 = CARTESIAN_POINT ( 'NONE',  ( 2.000000000000000000, 2.000000000000000000, -1.224646799147353200E-016 ) ) ;
#60 = LINE ( 'NONE', #59, #194 ) ;
#61 = DIRECTION ( 'NONE',  ( -9.106159978880878600E-017, -0.0000000000000000000, -1.000000000000000000 ) ) ;
#62 = CARTESIAN_POINT ( 'NONE',  ( 1.999999999999999800, 0.0000000000000000000, -3.000000000000000400 ) ) ;
#63 = LINE ( 'NONE', #62, #195 ) ;
#64 = DIRECTION ( 'NONE',  ( -0.0000000000000000000, -1.000000000000000000, -0.0000000000000000000 ) ) ;
#65 = CARTESIAN_POINT ( 'NONE',  ( 1.999999999999999800, 2.000000000000000000, -3.000000000000000400 ) ) ;
#66 = LINE ( 'NONE', #65, #196 ) ;
#67 = DIRECTION ( 'NONE',  ( -0.0000000000000000000, -1.000000000000000000, -0.0000000000000000000 ) ) ;
#68 = CARTESIAN_POINT ( 'NONE',  ( 0.0000000000000000000, 2.000000000000000000, 0.0000000000000000000 ) ) ;
#69 = LINE ( 'NONE', #68, #197 ) ;
#70 = DIRECTION ( 'NONE',  ( 1.000000000000000000, -0.0000000000000000000, -6.123233995736766000E-017 ) ) ;
#71 = CARTESIAN_POINT ( 'NONE',  ( 2.000000000000000000, 2.000000000000000000, -1.224646799147353200E-016 ) ) ;
#72 = LINE ( 'NONE', #71, #198 ) ;
#73 = DIRECTION ( 'NONE',  ( -1.000000000000000000, -0.0000000000000000000, -0.0000000000000000000 ) ) ;
#74 = CARTESIAN_POINT ( 'NONE',  ( 0.0000000000000000000, 0.0000000000000000000, -3.000000000000000400 ) ) ;
#75 = LINE ( 'NONE', #74, #173 ) ;
#76 = PLANE ( 'NONE',  #193 ) ;
#77 = DIRECTION ( 'NONE',  ( 1.000000000000000000, -0.0000000000000000000, -6.123233995736766000E-017 ) ) ;
#78 = CARTESIAN_POINT ( 'NONE',  ( 2.000000000000000000, 0.0000000000000000000, -1.224646799147353200E-016 ) ) ;
#79 = LINE ( 'NONE', #78, #184 ) ;
#80 = DIRECTION ( 'NONE',  ( -1.000000000000000000, 0.0000000000000000000, 6.123233995736766000E-017 ) ) ;
#81 = DIRECTION ( 'NONE',  ( -6.123233995736766000E-017, 0.0000000000000000000, -1.000000000000000000 ) ) ;
#82 = CARTESIAN_POINT ( 'NONE',  ( 2.000000000000000000, 2.000000000000000000, -1.224646799147353200E-016 ) ) ;
#83 = PLANE ( 'NONE',  #9 ) ;
#84 = DIRECTION ( 'NONE',  ( 1.000000000000000000, 0.0000000000000000000, -0.0000000000000000000 ) ) ;
#85 = DIRECTION ( 'NONE',  ( 0.0000000000000000000, 0.0000000000000000000, 1.000000000000000000 ) ) ;
#86 = CARTESIAN_POINT ( 'NONE',  ( 0.0000000000000000000, 2.000000000000000000, -3.000000000000000400 ) ) ;
#87 = PLANE ( 'NONE',  #7 ) ;
#88 = DIRECTION ( 'NONE',  ( 9.106159978880877400E-017, 0.0000000000000000000, 1.000000000000000000 ) ) ;
#89 = DIRECTION ( 'NONE',  ( -1.000000000000000000, 0.0000000000000000000, 9.106159978880877400E-017 ) ) ;
#90 = CARTESIAN_POINT ( 'NONE',  ( 1.999999999999999800, 2.000000000000000000, -3.000000000000000400 ) ) ;
#91 = DIRECTION ( 'NONE',  ( -0.0000000000000000000, -0.0000000000000000000, 1.000000000000000000 ) ) ;
#92 = CARTESIAN_POINT ( 'NONE',  ( 0.0000000000000000000, 0.0000000000000000000, 0.0000000000000000000 ) ) ;
#93 = LINE ( 'NONE', #92, #8 ) ;
#94 = PLANE ( 'NONE',  #5 ) ;
#95 = LINE ( 'NONE', #96, #6 ) ;
#96 = CARTESIAN_POINT ( 'NONE',  ( 0.0000000000000000000, 2.000000000000000000, -3.000000000000000400 ) ) ;
#97 = DIRECTION ( 'NONE',  ( -1.000000000000000000, -0.0000000000000000000, -0.0000000000000000000 ) ) ;
#98 = CARTESIAN_POINT ( 'NONE',  ( 0.0000000000000000000, 0.0000000000000000000, -3.000000000000000400 ) ) ;
#99 = CARTESIAN_POINT ( 'NONE',  ( 0.0000000000000000000, 2.000000000000000000, 0.0000000000000000000 ) ) ;
#100 = CARTESIAN_POINT ( 'NONE',  ( 2.000000000000000000, 0.0000000000000000000, -1.224646799147353200E-016 ) ) ;
#101 = CARTESIAN_POINT ( 'NONE',  ( 0.0000000000000000000, 0.0000000000000000000, 0.0000000000000000000 ) ) ;
#102 = CARTESIAN_POINT ( 'NONE',  ( 1.999999999999999800, 2.000000000000000000, -3.000000000000000400 ) ) ;
#103 = CARTESIAN_POINT ( 'NONE',  ( 2.000000000000000000, 2.000000000000000000, -1.224646799147353200E-016 ) ) ;
#104 = ORIENTED_EDGE ( 'NONE', *, *, #160, .F. ) ;
#105 = CARTESIAN_POINT ( 'NONE',  ( 1.999999999999999800, 0.0000000000000000000, -3.000000000000000400 ) ) ;
#106 = CARTESIAN_POINT ( 'NONE',  ( 0.0000000000000000000, 2.000000000000000000, -3.000000000000000400 ) ) ;
#107 = ORIENTED_EDGE ( 'NONE', *, *, #168, .F. ) ;
#108 = ORIENTED_EDGE ( 'NONE', *, *, #149, .T. ) ;
#109 = ORIENTED_EDGE ( 'NONE', *, *, #167, .F. ) ;
#110 = ORIENTED_EDGE ( 'NONE', *, *, #160, .T. ) ;
#111 = ORIENTED_EDGE ( 'NONE', *, *, #169, .F. ) ;
#112 = ORIENTED_EDGE ( 'NONE', *, *, #148, .F. ) ;
#113 = ORIENTED_EDGE ( 'NONE', *, *, #157, .T. ) ;
#114 = ORIENTED_EDGE ( 'NONE', *, *, #163, .T. ) ;
#115 = ORIENTED_EDGE ( 'NONE', *, *, #157, .F. ) ;
#116 = ORIENTED_EDGE ( 'NONE', *, *, #149, .F. ) ;
#117 = ORIENTED_EDGE ( 'NONE', *, *, #156, .F. ) ;
#118 = ORIENTED_EDGE ( 'NONE', *, *, #161, .F. ) ;
#119 = ORIENTED_EDGE ( 'NONE', *, *, #148, .T. ) ;
#120 = ORIENTED_EDGE ( 'NONE', *, *, #168, .T. ) ;
#121 = ORIENTED_EDGE ( 'NONE', *, *, #158, .T. ) ;
#122 = ORIENTED_EDGE ( 'NONE', *, *, #169, .T. ) ;
#123 = ORIENTED_EDGE ( 'NONE', *, *, #167, .T. ) ;
#124 = ORIENTED_EDGE ( 'NONE', *, *, #159, .F. ) ;
#125 = VERTEX_POINT ( 'NONE', #105 ) ;
#126 = VERTEX_POINT ( 'NONE', #106 ) ;
#127 = VERTEX_POINT ( 'NONE', #101 ) ;
#128 = VERTEX_POINT ( 'NONE', #103 ) ;
#129 = VERTEX_POINT ( 'NONE', #102 ) ;
#130 = VERTEX_POINT ( 'NONE', #98 ) ;
#131 = VERTEX_POINT ( 'NONE', #99 ) ;
#132 = VERTEX_POINT ( 'NONE', #100 ) ;
#133 = EDGE_LOOP ( 'NONE', ( #139, #104, #107, #114 ) ) ;
#134 = EDGE_LOOP ( 'NONE', ( #113, #111, #112, #110 ) ) ;
#135 = EDGE_LOOP ( 'NONE', ( #143, #141, #142, #140 ) ) ;
#136 = EDGE_LOOP ( 'NONE', ( #108, #124, #109, #122 ) ) ;
#137 = EDGE_LOOP ( 'NONE', ( #121, #120, #119, #123 ) ) ;
#138 = EDGE_LOOP ( 'NONE', ( #117, #116, #115, #118 ) ) ;
#139 = ORIENTED_EDGE ( 'NONE', *, *, #161, .T. ) ;
#140 = ORIENTED_EDGE ( 'NONE', *, *, #159, .T. ) ;
#141 = ORIENTED_EDGE ( 'NONE', *, *, #163, .F. ) ;
#142 = ORIENTED_EDGE ( 'NONE', *, *, #158, .F. ) ;
#143 = ORIENTED_EDGE ( 'NONE', *, *, #156, .T. ) ;
#144 = UNCERTAINTY_MEASURE_WITH_UNIT (LENGTH_MEASURE( 1.000000000000000100E-005 ), #204, 'distance_accuracy_value', 'NONE');
#145 = UNCERTAINTY_MEASURE_WITH_UNIT (LENGTH_MEASURE( 1.000000000000000100E-005 ), #28, 'distance_accuracy_value', 'NONE');
#146 = ADVANCED_BREP_SHAPE_REPRESENTATION ( 'P2000PX', ( #171, #177 ), #210 ) ;
#147 = UNCERTAINTY_MEASURE_WITH_UNIT (LENGTH_MEASURE( 1.000000000000000100E-005 ), #21, 'distance_accuracy_value', 'NONE');
#148 = EDGE_CURVE ( 'NONE', #129, #126, #95, .T. ) ;
#149 = EDGE_CURVE ( 'NONE', #130, #127, #93, .T. ) ;
#150 = PRODUCT_RELATED_PRODUCT_CATEGORY ( 'part', '', ( #1 ) ) ;
#151 = ADVANCED_FACE ( 'NONE', ( #12 ), #94, .F. ) ;
#152 = PRODUCT_DEFINITION ( 'UNKNOWN', '', #179, #170 ) ;
#153 = COLOUR_RGB ( '',0.5686274509803921400, 0.5686274509803921400, 0.5882352941176470800 ) ;
#154 = ADVANCED_FACE ( 'NONE', ( #13 ), #87, .F. ) ;
#155 = ADVANCED_FACE ( 'NONE', ( #10 ), #83, .F. ) ;
#156 = EDGE_CURVE ( 'NONE', #127, #132, #79, .T. ) ;
#157 = EDGE_CURVE ( 'NONE', #125, #130, #75, .T. ) ;
#158 = EDGE_CURVE ( 'NONE', #131, #128, #72, .T. ) ;
#159 = EDGE_CURVE ( 'NONE', #131, #127, #69, .T. ) ;
#160 = EDGE_CURVE ( 'NONE', #129, #125, #66, .T. ) ;
#161 = EDGE_CURVE ( 'NONE', #132, #125, #63, .T. ) ;
#162 = COLOUR_RGB ( '',0.5686274509803921400, 0.5686274509803921400, 0.5882352941176470800 ) ;
#163 = EDGE_CURVE ( 'NONE', #128, #132, #60, .T. ) ;
#164 = ADVANCED_FACE ( 'NONE', ( #11 ), #76, .F. ) ;
#165 = ADVANCED_FACE ( 'NONE', ( #192 ), #54, .F. ) ;
#166 = ADVANCED_FACE ( 'NONE', ( #191 ), #50, .T. ) ;
#167 = EDGE_CURVE ( 'NONE', #126, #131, #45, .T. ) ;
#168 = EDGE_CURVE ( 'NONE', #128, #129, #42, .T. ) ;
#169 = EDGE_CURVE ( 'NONE', #126, #130, #39, .T. ) ;
#170 = PRODUCT_DEFINITION_CONTEXT ( 'detailed design', #16, 'design' ) ;
#171 = MANIFOLD_SOLID_BREP ( 'Boss-Extrude1', #14 ) ;
#172 = PRODUCT_DEFINITION_SHAPE ( 'NONE', 'NONE',  #152 ) ;
#173 = VECTOR ( 'NONE', #73, 39.37007874015748100 ) ;
#174 = PRESENTATION_LAYER_ASSIGNMENT (  '', '', ( #181 ) ) ;
#175 = MECHANICAL_DESIGN_GEOMETRIC_PRESENTATION_REPRESENTATION (  '', ( #181 ), #211 ) ;
#176 = LENGTH_MEASURE_WITH_UNIT ( LENGTH_MEASURE( 0.02539999999999999900 ), #207 );
#177 = AXIS2_PLACEMENT_3D ( 'NONE', #202, #201, #199 ) ;
#178 = LENGTH_MEASURE_WITH_UNIT ( LENGTH_MEASURE( 0.02539999999999999900 ), #22 );
#179 = PRODUCT_DEFINITION_FORMATION_WITH_SPECIFIED_SOURCE ( 'ANY', '', #1, .NOT_KNOWN. ) ;
#180 = LENGTH_MEASURE_WITH_UNIT ( LENGTH_MEASURE( 0.02539999999999999900 ), #30 );
#181 = STYLED_ITEM ( 'NONE', ( #205 ), #146 ) ;
#182 = MECHANICAL_DESIGN_GEOMETRIC_PRESENTATION_REPRESENTATION (  '', ( #189 ), #209 ) ;
#183 = VECTOR ( 'NONE', #37, 39.37007874015748100 ) ;
#184 = VECTOR ( 'NONE', #77, 39.37007874015748100 ) ;
#185 = PRESENTATION_LAYER_ASSIGNMENT (  '', '', ( #189 ) ) ;
#186 = VECTOR ( 'NONE', #43, 39.37007874015748100 ) ;
#187 = VECTOR ( 'NONE', #40, 39.37007874015748100 ) ;
#188 = AXIS2_PLACEMENT_3D ( 'NONE', #48, #47, #46 ) ;
#189 = STYLED_ITEM ( 'NONE', ( #35 ), #171 ) ;
#190 = AXIS2_PLACEMENT_3D ( 'NONE', #53, #52, #51 ) ;
#191 = FACE_OUTER_BOUND ( 'NONE', #138, .T. ) ;
#192 = FACE_OUTER_BOUND ( 'NONE', #137, .T. ) ;
#193 = AXIS2_PLACEMENT_3D ( 'NONE', #57, #56, #55 ) ;
#194 = VECTOR ( 'NONE', #58, 39.37007874015748100 ) ;
#195 = VECTOR ( 'NONE', #61, 39.37007874015748100 ) ;
#196 = VECTOR ( 'NONE', #64, 39.37007874015748100 ) ;
#197 = VECTOR ( 'NONE', #67, 39.37007874015748100 ) ;
#198 = VECTOR ( 'NONE', #70, 39.37007874015748100 ) ;
#199 = DIRECTION ( 'NONE',  ( 1.000000000000000000, 0.0000000000000000000, 0.0000000000000000000 ) ) ;
#200 = SHAPE_DEFINITION_REPRESENTATION ( #172, #146 ) ;
#201 = DIRECTION ( 'NONE',  ( 0.0000000000000000000, 0.0000000000000000000, 1.000000000000000000 ) ) ;
#202 = CARTESIAN_POINT ( 'NONE',  ( 0.0000000000000000000, 0.0000000000000000000, 0.0000000000000000000 ) ) ;
#203 =( NAMED_UNIT ( * ) SI_UNIT ( $, .STERADIAN. ) SOLID_ANGLE_UNIT ( ) );
#204 =( CONVERSION_BASED_UNIT ( 'INCH', #176 ) LENGTH_UNIT ( ) NAMED_UNIT ( #4 ) );
#205 = PRESENTATION_STYLE_ASSIGNMENT (( #31 ) ) ;
#206 = APPLICATION_PROTOCOL_DEFINITION ( 'draft international standard', 'automotive_design', 1998, #15 ) ;
#207 =( LENGTH_UNIT ( ) NAMED_UNIT ( * ) SI_UNIT ( $, .METRE. ) );
#208 =( NAMED_UNIT ( * ) PLANE_ANGLE_UNIT ( ) SI_UNIT ( $, .RADIAN. ) );
#209 =( GEOMETRIC_REPRESENTATION_CONTEXT ( 3 ) GLOBAL_UNCERTAINTY_ASSIGNED_CONTEXT ( ( #145 ) ) GLOBAL_UNIT_ASSIGNED_CONTEXT ( ( #28, #27, #26 ) ) REPRESENTATION_CONTEXT ( 'NONE', 'WORKASPACE' ) );
#210 =( GEOMETRIC_REPRESENTATION_CONTEXT ( 3 ) GLOBAL_UNCERTAINTY_ASSIGNED_CONTEXT ( ( #147 ) ) GLOBAL_UNIT_ASSIGNED_CONTEXT ( ( #21, #20, #19 ) ) REPRESENTATION_CONTEXT ( 'NONE', 'WORKASPACE' ) );
#211 =( GEOMETRIC_REPRESENTATION_CONTEXT ( 3 ) GLOBAL_UNCERTAINTY_ASSIGNED_CONTEXT ( ( #144 ) ) GLOBAL_UNIT_ASSIGNED_CONTEXT ( ( #204, #208, #203 ) ) REPRESENTATION_CONTEXT ( 'NONE', 'WORKASPACE' ) );
ENDSEC;
END-ISO-10303-21;
