ISO-10303-21;
HEADER;
FILE_DESCRIPTION (( 'STEP AP214' ),
    '1' );
FILE_NAME ('P250AF.step',
    '2012-04-20T21:01:12',
    ( '' ),
    ( '' ),
    'SwSTEP 2.0',
    'SolidWorks 2012',
    '' );
FILE_SCHEMA (( 'AUTOMOTIVE_DESIGN' ));
ENDSEC;

DATA;
#1 =( GEOMETRIC_REPRESENTATION_CONTEXT ( 3 ) GLOBAL_UNCERTAINTY_ASSIGNED_CONTEXT ( ( #19 ) ) GLOBAL_UNIT_ASSIGNED_CONTEXT ( ( #114, #113, #112 ) ) REPRESENTATION_CONTEXT ( 'NONE', 'WORKASPACE' ) );
#2 =( GEOMETRIC_REPRESENTATION_CONTEXT ( 3 ) GLOBAL_UNCERTAINTY_ASSIGNED_CONTEXT ( ( #20 ) ) GLOBAL_UNIT_ASSIGNED_CONTEXT ( ( #51, #50, #49 ) ) REPRESENTATION_CONTEXT ( 'NONE', 'WORKASPACE' ) );
#3 =( GEOMETRIC_REPRESENTATION_CONTEXT ( 3 ) GLOBAL_UNCERTAINTY_ASSIGNED_CONTEXT ( ( #18 ) ) GLOBAL_UNIT_ASSIGNED_CONTEXT ( ( #31, #30, #29 ) ) REPRESENTATION_CONTEXT ( 'NONE', 'WORKASPACE' ) );
#4 = DIMENSIONAL_EXPONENTS ( 1.000000000000000000, 0.0000000000000000000, 0.0000000000000000000, 0.0000000000000000000, 0.0000000000000000000, 0.0000000000000000000, 0.0000000000000000000 ) ;
#5 = PRODUCT ( 'P250AF', 'P250AF', '', ( #37 ) ) ;
#6 = DIMENSIONAL_EXPONENTS ( 1.000000000000000000, 0.0000000000000000000, 0.0000000000000000000, 0.0000000000000000000, 0.0000000000000000000, 0.0000000000000000000, 0.0000000000000000000 ) ;
#7 = DIMENSIONAL_EXPONENTS ( 1.000000000000000000, 0.0000000000000000000, 0.0000000000000000000, 0.0000000000000000000, 0.0000000000000000000, 0.0000000000000000000, 0.0000000000000000000 ) ;
#8 = LENGTH_MEASURE_WITH_UNIT ( LENGTH_MEASURE( 0.02539999999999999900 ), #115 );
#9 = PRESENTATION_LAYER_ASSIGNMENT (  '', '', ( #10 ) ) ;
#10 = STYLED_ITEM ( 'NONE', ( #116 ), #177 ) ;
#11 = VECTOR ( 'NONE', #122, 39.37007874015748100 ) ;
#12 = VECTOR ( 'NONE', #126, 39.37007874015748100 ) ;
#13 = CLOSED_SHELL ( 'NONE', ( #197, #199, #196, #202, #201, #198 ) ) ;
#14 = MECHANICAL_DESIGN_GEOMETRIC_PRESENTATION_REPRESENTATION (  '', ( #10 ), #1 ) ;
#15 = FACE_OUTER_BOUND ( 'NONE', #40, .T. ) ;
#16 = APPLICATION_CONTEXT ( 'automotive_design' ) ;
#17 = APPLICATION_CONTEXT ( 'automotive_design' ) ;
#18 = UNCERTAINTY_MEASURE_WITH_UNIT (LENGTH_MEASURE( 1.000000000000000100E-005 ), #31, 'distance_accuracy_value', 'NONE');
#19 = UNCERTAINTY_MEASURE_WITH_UNIT (LENGTH_MEASURE( 1.000000000000000100E-005 ), #114, 'distance_accuracy_value', 'NONE');
#20 = UNCERTAINTY_MEASURE_WITH_UNIT (LENGTH_MEASURE( 1.000000000000000100E-005 ), #51, 'distance_accuracy_value', 'NONE');
#21 = ADVANCED_BREP_SHAPE_REPRESENTATION ( 'P250AF', ( #177, #191 ), #2 ) ;
#22 = SHAPE_DEFINITION_REPRESENTATION ( #176, #21 ) ;
#23 = DIRECTION ( 'NONE',  ( 0.0000000000000000000, 0.0000000000000000000, 1.000000000000000000 ) ) ;
#24 = CARTESIAN_POINT ( 'NONE',  ( 0.0000000000000000000, 0.0000000000000000000, 0.0000000000000000000 ) ) ;
#25 = DIRECTION ( 'NONE',  ( 1.000000000000000000, 0.0000000000000000000, 0.0000000000000000000 ) ) ;
#26 = EDGE_LOOP ( 'NONE', ( #137, #153, #138, #151 ) ) ;
#27 = VERTEX_POINT ( 'NONE', #136 ) ;
#28 = VERTEX_POINT ( 'NONE', #135 ) ;
#29 =( NAMED_UNIT ( * ) SI_UNIT ( $, .STERADIAN. ) SOLID_ANGLE_UNIT ( ) );
#30 =( NAMED_UNIT ( * ) PLANE_ANGLE_UNIT ( ) SI_UNIT ( $, .RADIAN. ) );
#31 =( CONVERSION_BASED_UNIT ( 'INCH', #189 ) LENGTH_UNIT ( ) NAMED_UNIT ( #6 ) );
#32 =( LENGTH_UNIT ( ) NAMED_UNIT ( * ) SI_UNIT ( $, .METRE. ) );
#33 = ORIENTED_EDGE ( 'NONE', *, *, #173, .T. ) ;
#34 = PRESENTATION_STYLE_ASSIGNMENT (( #35 ) ) ;
#35 = SURFACE_STYLE_USAGE ( .BOTH. , #36 ) ;
#36 = SURFACE_SIDE_STYLE ('',( #45 ) ) ;
#37 = PRODUCT_CONTEXT ( 'NONE', #16, 'mechanical' ) ;
#38 = APPLICATION_PROTOCOL_DEFINITION ( 'draft international standard', 'automotive_design', 1998, #17 ) ;
#39 = VERTEX_POINT ( 'NONE', #134 ) ;
#40 = EDGE_LOOP ( 'NONE', ( #142, #140, #141, #139 ) ) ;
#41 = ORIENTED_EDGE ( 'NONE', *, *, #194, .F. ) ;
#42 = ORIENTED_EDGE ( 'NONE', *, *, #172, .F. ) ;
#43 = FILL_AREA_STYLE_COLOUR ( '', #205 ) ;
#44 = EDGE_LOOP ( 'NONE', ( #33, #42, #41, #158 ) ) ;
#45 = SURFACE_STYLE_FILL_AREA ( #47 ) ;
#46 = EDGE_LOOP ( 'NONE', ( #156, #104, #155, #143 ) ) ;
#47 = FILL_AREA_STYLE ('',( #43 ) ) ;
#48 = APPLICATION_PROTOCOL_DEFINITION ( 'draft international standard', 'automotive_design', 1998, #16 ) ;
#49 =( NAMED_UNIT ( * ) SI_UNIT ( $, .STERADIAN. ) SOLID_ANGLE_UNIT ( ) );
#50 =( NAMED_UNIT ( * ) PLANE_ANGLE_UNIT ( ) SI_UNIT ( $, .RADIAN. ) );
#51 =( CONVERSION_BASED_UNIT ( 'INCH', #190 ) LENGTH_UNIT ( ) NAMED_UNIT ( #4 ) );
#52 =( LENGTH_UNIT ( ) NAMED_UNIT ( * ) SI_UNIT ( $, .METRE. ) );
#53 = DIRECTION ( 'NONE',  ( -1.000000000000000000, -0.0000000000000000000, -0.0000000000000000000 ) ) ;
#54 = CARTESIAN_POINT ( 'NONE',  ( 0.0000000000000000000, 0.0000000000000000000, -0.2499999999999997500 ) ) ;
#55 = LINE ( 'NONE', #54, #179 ) ;
#56 = DIRECTION ( 'NONE',  ( -0.0000000000000000000, -1.000000000000000000, -0.0000000000000000000 ) ) ;
#57 = CARTESIAN_POINT ( 'NONE',  ( 0.0000000000000000000, 0.1250000000000000000, 0.0000000000000000000 ) ) ;
#58 = LINE ( 'NONE', #57, #178 ) ;
#59 = DIRECTION ( 'NONE',  ( -1.000000000000000000, -0.0000000000000000000, -0.0000000000000000000 ) ) ;
#60 = CARTESIAN_POINT ( 'NONE',  ( 0.0000000000000000000, 0.1250000000000000000, -0.2499999999999997500 ) ) ;
#61 = LINE ( 'NONE', #60, #181 ) ;
#62 = DIRECTION ( 'NONE',  ( -0.0000000000000000000, -0.0000000000000000000, 1.000000000000000000 ) ) ;
#63 = CARTESIAN_POINT ( 'NONE',  ( 0.0000000000000000000, 0.0000000000000000000, 0.0000000000000000000 ) ) ;
#64 = LINE ( 'NONE', #63, #188 ) ;
#65 = DIRECTION ( 'NONE',  ( -0.0000000000000000000, -0.0000000000000000000, -1.000000000000000000 ) ) ;
#66 = CARTESIAN_POINT ( 'NONE',  ( 0.7499999999999998900, 0.1250000000000000000, -0.2499999999999997500 ) ) ;
#67 = LINE ( 'NONE', #66, #182 ) ;
#68 = DIRECTION ( 'NONE',  ( -0.0000000000000000000, -1.000000000000000000, -0.0000000000000000000 ) ) ;
#69 = CARTESIAN_POINT ( 'NONE',  ( 0.0000000000000000000, 0.1250000000000000000, -0.2499999999999997500 ) ) ;
#70 = LINE ( 'NONE', #69, #183 ) ;
#71 = DIRECTION ( 'NONE',  ( 0.0000000000000000000, 0.0000000000000000000, -1.000000000000000000 ) ) ;
#72 = DIRECTION ( 'NONE',  ( 1.000000000000000000, -0.0000000000000000000, 0.0000000000000000000 ) ) ;
#73 = CARTESIAN_POINT ( 'NONE',  ( 0.0000000000000000000, 0.1250000000000000000, 0.0000000000000000000 ) ) ;
#74 = PLANE ( 'NONE',  #166 ) ;
#75 = DIRECTION ( 'NONE',  ( 0.0000000000000000000, 0.0000000000000000000, -1.000000000000000000 ) ) ;
#76 = DIRECTION ( 'NONE',  ( 0.0000000000000000000, -1.000000000000000000, 0.0000000000000000000 ) ) ;
#77 = CARTESIAN_POINT ( 'NONE',  ( 0.0000000000000000000, 0.1250000000000000000, 0.0000000000000000000 ) ) ;
#78 = PLANE ( 'NONE',  #180 ) ;
#79 = DIRECTION ( 'NONE',  ( -0.0000000000000000000, -0.0000000000000000000, 1.000000000000000000 ) ) ;
#80 = CARTESIAN_POINT ( 'NONE',  ( 0.0000000000000000000, 0.1250000000000000000, 0.0000000000000000000 ) ) ;
#81 = LINE ( 'NONE', #80, #162 ) ;
#82 = DIRECTION ( 'NONE',  ( 0.0000000000000000000, 0.0000000000000000000, 1.000000000000000000 ) ) ;
#83 = DIRECTION ( 'NONE',  ( -1.000000000000000000, 0.0000000000000000000, 0.0000000000000000000 ) ) ;
#84 = CARTESIAN_POINT ( 'NONE',  ( 0.7499999999999998900, 0.1250000000000000000, -0.2499999999999997500 ) ) ;
#85 = PLANE ( 'NONE',  #171 ) ;
#86 = DIRECTION ( 'NONE',  ( 0.0000000000000000000, 0.0000000000000000000, -1.000000000000000000 ) ) ;
#87 = DIRECTION ( 'NONE',  ( 0.0000000000000000000, -1.000000000000000000, 0.0000000000000000000 ) ) ;
#88 = CARTESIAN_POINT ( 'NONE',  ( 0.0000000000000000000, 0.0000000000000000000, 0.0000000000000000000 ) ) ;
#89 = PLANE ( 'NONE',  #159 ) ;
#90 = DIRECTION ( 'NONE',  ( -1.000000000000000000, 0.0000000000000000000, -3.673940397442060400E-016 ) ) ;
#91 = DIRECTION ( 'NONE',  ( 3.673940397442060400E-016, 0.0000000000000000000, -1.000000000000000000 ) ) ;
#92 = CARTESIAN_POINT ( 'NONE',  ( 0.7499999999999998900, 0.1250000000000000000, 2.755455298081544800E-016 ) ) ;
#93 = PLANE ( 'NONE',  #161 ) ;
#94 = DIRECTION ( 'NONE',  ( 1.000000000000000000, 0.0000000000000000000, -0.0000000000000000000 ) ) ;
#95 = DIRECTION ( 'NONE',  ( 0.0000000000000000000, 0.0000000000000000000, 1.000000000000000000 ) ) ;
#96 = CARTESIAN_POINT ( 'NONE',  ( 0.0000000000000000000, 0.1250000000000000000, -0.2499999999999997500 ) ) ;
#97 = VERTEX_POINT ( 'NONE', #133 ) ;
#98 = VERTEX_POINT ( 'NONE', #132 ) ;
#99 = VERTEX_POINT ( 'NONE', #131 ) ;
#100 = LINE ( 'NONE', #101, #167 ) ;
#101 = CARTESIAN_POINT ( 'NONE',  ( 0.7499999999999998900, 0.1250000000000000000, -0.2499999999999997500 ) ) ;
#102 = EDGE_LOOP ( 'NONE', ( #150, #149, #148, #152 ) ) ;
#103 = EDGE_LOOP ( 'NONE', ( #146, #145, #144, #147 ) ) ;
#104 = ORIENTED_EDGE ( 'NONE', *, *, #195, .F. ) ;
#105 = DIRECTION ( 'NONE',  ( -0.0000000000000000000, -1.000000000000000000, -0.0000000000000000000 ) ) ;
#106 = LINE ( 'NONE', #107, #169 ) ;
#107 = CARTESIAN_POINT ( 'NONE',  ( 0.7499999999999998900, 0.1250000000000000000, 2.755455298081544800E-016 ) ) ;
#108 = DIRECTION ( 'NONE',  ( 1.000000000000000000, -0.0000000000000000000, 3.673940397442060400E-016 ) ) ;
#109 = CARTESIAN_POINT ( 'NONE',  ( 0.7499999999999998900, 0.0000000000000000000, -0.2499999999999997500 ) ) ;
#110 = PLANE ( 'NONE',  #170 ) ;
#111 = DIRECTION ( 'NONE',  ( -0.0000000000000000000, -0.0000000000000000000, -1.000000000000000000 ) ) ;
#112 =( NAMED_UNIT ( * ) SI_UNIT ( $, .STERADIAN. ) SOLID_ANGLE_UNIT ( ) );
#113 =( NAMED_UNIT ( * ) PLANE_ANGLE_UNIT ( ) SI_UNIT ( $, .RADIAN. ) );
#114 =( CONVERSION_BASED_UNIT ( 'INCH', #8 ) LENGTH_UNIT ( ) NAMED_UNIT ( #7 ) );
#115 =( LENGTH_UNIT ( ) NAMED_UNIT ( * ) SI_UNIT ( $, .METRE. ) );
#116 = PRESENTATION_STYLE_ASSIGNMENT (( #117 ) ) ;
#117 = SURFACE_STYLE_USAGE ( .BOTH. , #118 ) ;
#118 = SURFACE_SIDE_STYLE ('',( #119 ) ) ;
#119 = SURFACE_STYLE_FILL_AREA ( #120 ) ;
#120 = FILL_AREA_STYLE ('',( #121 ) ) ;
#121 = FILL_AREA_STYLE_COLOUR ( '', #206 ) ;
#122 = DIRECTION ( 'NONE',  ( 1.000000000000000000, -0.0000000000000000000, 3.673940397442060400E-016 ) ) ;
#123 = CARTESIAN_POINT ( 'NONE',  ( 0.7499999999999998900, 0.0000000000000000000, 2.755455298081544800E-016 ) ) ;
#124 = LINE ( 'NONE', #123, #11 ) ;
#125 = LINE ( 'NONE', #109, #165 ) ;
#126 = DIRECTION ( 'NONE',  ( -0.0000000000000000000, -1.000000000000000000, -0.0000000000000000000 ) ) ;
#127 = CARTESIAN_POINT ( 'NONE',  ( 0.7499999999999998900, 0.1250000000000000000, 2.755455298081544800E-016 ) ) ;
#128 = LINE ( 'NONE', #127, #12 ) ;
#129 = CARTESIAN_POINT ( 'NONE',  ( 0.7499999999999998900, 0.0000000000000000000, 2.755455298081544800E-016 ) ) ;
#130 = CARTESIAN_POINT ( 'NONE',  ( 0.0000000000000000000, 0.1250000000000000000, 0.0000000000000000000 ) ) ;
#131 = CARTESIAN_POINT ( 'NONE',  ( 0.7499999999999998900, 0.0000000000000000000, -0.2499999999999997500 ) ) ;
#132 = CARTESIAN_POINT ( 'NONE',  ( 0.0000000000000000000, 0.0000000000000000000, 0.0000000000000000000 ) ) ;
#133 = CARTESIAN_POINT ( 'NONE',  ( 0.7499999999999998900, 0.1250000000000000000, 2.755455298081544800E-016 ) ) ;
#134 = CARTESIAN_POINT ( 'NONE',  ( 0.0000000000000000000, 0.1250000000000000000, -0.2499999999999997500 ) ) ;
#135 = CARTESIAN_POINT ( 'NONE',  ( 0.0000000000000000000, 0.0000000000000000000, -0.2499999999999997500 ) ) ;
#136 = CARTESIAN_POINT ( 'NONE',  ( 0.7499999999999998900, 0.1250000000000000000, -0.2499999999999997500 ) ) ;
#137 = ORIENTED_EDGE ( 'NONE', *, *, #208, .T. ) ;
#138 = ORIENTED_EDGE ( 'NONE', *, *, #200, .F. ) ;
#139 = ORIENTED_EDGE ( 'NONE', *, *, #195, .T. ) ;
#140 = ORIENTED_EDGE ( 'NONE', *, *, #203, .F. ) ;
#141 = ORIENTED_EDGE ( 'NONE', *, *, #209, .F. ) ;
#142 = ORIENTED_EDGE ( 'NONE', *, *, #211, .T. ) ;
#143 = ORIENTED_EDGE ( 'NONE', *, *, #172, .T. ) ;
#144 = ORIENTED_EDGE ( 'NONE', *, *, #211, .F. ) ;
#145 = ORIENTED_EDGE ( 'NONE', *, *, #208, .F. ) ;
#146 = ORIENTED_EDGE ( 'NONE', *, *, #173, .F. ) ;
#147 = ORIENTED_EDGE ( 'NONE', *, *, #193, .F. ) ;
#148 = ORIENTED_EDGE ( 'NONE', *, *, #209, .T. ) ;
#149 = ORIENTED_EDGE ( 'NONE', *, *, #204, .T. ) ;
#150 = ORIENTED_EDGE ( 'NONE', *, *, #194, .T. ) ;
#151 = ORIENTED_EDGE ( 'NONE', *, *, #203, .T. ) ;
#152 = ORIENTED_EDGE ( 'NONE', *, *, #200, .T. ) ;
#153 = ORIENTED_EDGE ( 'NONE', *, *, #210, .F. ) ;
#154 = VERTEX_POINT ( 'NONE', #130 ) ;
#155 = ORIENTED_EDGE ( 'NONE', *, *, #204, .F. ) ;
#156 = ORIENTED_EDGE ( 'NONE', *, *, #193, .T. ) ;
#157 = VERTEX_POINT ( 'NONE', #129 ) ;
#158 = ORIENTED_EDGE ( 'NONE', *, *, #210, .T. ) ;
#159 = AXIS2_PLACEMENT_3D ( 'NONE', #88, #87, #86 ) ;
#160 = FACE_OUTER_BOUND ( 'NONE', #46, .T. ) ;
#161 = AXIS2_PLACEMENT_3D ( 'NONE', #92, #91, #90 ) ;
#162 = VECTOR ( 'NONE', #79, 39.37007874015748100 ) ;
#163 = FACE_OUTER_BOUND ( 'NONE', #103, .T. ) ;
#164 = FACE_OUTER_BOUND ( 'NONE', #44, .T. ) ;
#165 = VECTOR ( 'NONE', #111, 39.37007874015748100 ) ;
#166 = AXIS2_PLACEMENT_3D ( 'NONE', #73, #72, #71 ) ;
#167 = VECTOR ( 'NONE', #105, 39.37007874015748100 ) ;
#168 = FACE_OUTER_BOUND ( 'NONE', #102, .T. ) ;
#169 = VECTOR ( 'NONE', #108, 39.37007874015748100 ) ;
#170 = AXIS2_PLACEMENT_3D ( 'NONE', #96, #95, #94 ) ;
#171 = AXIS2_PLACEMENT_3D ( 'NONE', #84, #83, #82 ) ;
#172 = EDGE_CURVE ( 'NONE', #97, #157, #128, .T. ) ;
#173 = EDGE_CURVE ( 'NONE', #98, #157, #124, .T. ) ;
#174 = PRODUCT_DEFINITION ( 'UNKNOWN', '', #192, #175 ) ;
#175 = PRODUCT_DEFINITION_CONTEXT ( 'detailed design', #17, 'design' ) ;
#176 = PRODUCT_DEFINITION_SHAPE ( 'NONE', 'NONE',  #174 ) ;
#177 = MANIFOLD_SOLID_BREP ( 'Boss-Extrude1', #13 ) ;
#178 = VECTOR ( 'NONE', #56, 39.37007874015748100 ) ;
#179 = VECTOR ( 'NONE', #53, 39.37007874015748100 ) ;
#180 = AXIS2_PLACEMENT_3D ( 'NONE', #77, #76, #75 ) ;
#181 = VECTOR ( 'NONE', #59, 39.37007874015748100 ) ;
#182 = VECTOR ( 'NONE', #65, 39.37007874015748100 ) ;
#183 = VECTOR ( 'NONE', #68, 39.37007874015748100 ) ;
#184 = STYLED_ITEM ( 'NONE', ( #34 ), #21 ) ;
#185 = PRESENTATION_LAYER_ASSIGNMENT (  '', '', ( #184 ) ) ;
#186 = MECHANICAL_DESIGN_GEOMETRIC_PRESENTATION_REPRESENTATION (  '', ( #184 ), #3 ) ;
#187 = FACE_OUTER_BOUND ( 'NONE', #26, .T. ) ;
#188 = VECTOR ( 'NONE', #62, 39.37007874015748100 ) ;
#189 = LENGTH_MEASURE_WITH_UNIT ( LENGTH_MEASURE( 0.02539999999999999900 ), #32 );
#190 = LENGTH_MEASURE_WITH_UNIT ( LENGTH_MEASURE( 0.02539999999999999900 ), #52 );
#191 = AXIS2_PLACEMENT_3D ( 'NONE', #24, #23, #25 ) ;
#192 = PRODUCT_DEFINITION_FORMATION_WITH_SPECIFIED_SOURCE ( 'ANY', '', #5, .NOT_KNOWN. ) ;
#193 = EDGE_CURVE ( 'NONE', #157, #99, #125, .T. ) ;
#194 = EDGE_CURVE ( 'NONE', #154, #97, #106, .T. ) ;
#195 = EDGE_CURVE ( 'NONE', #27, #99, #100, .T. ) ;
#196 = ADVANCED_FACE ( 'NONE', ( #15 ), #110, .F. ) ;
#197 = ADVANCED_FACE ( 'NONE', ( #164 ), #93, .F. ) ;
#198 = ADVANCED_FACE ( 'NONE', ( #163 ), #89, .T. ) ;
#199 = ADVANCED_FACE ( 'NONE', ( #160 ), #85, .F. ) ;
#200 = EDGE_CURVE ( 'NONE', #39, #154, #81, .T. ) ;
#201 = ADVANCED_FACE ( 'NONE', ( #168 ), #78, .F. ) ;
#202 = ADVANCED_FACE ( 'NONE', ( #187 ), #74, .F. ) ;
#203 = EDGE_CURVE ( 'NONE', #39, #28, #70, .T. ) ;
#204 = EDGE_CURVE ( 'NONE', #97, #27, #67, .T. ) ;
#205 = COLOUR_RGB ( '',0.5686274509803921400, 0.5686274509803921400, 0.5882352941176470800 ) ;
#206 = COLOUR_RGB ( '',0.5686274509803921400, 0.5686274509803921400, 0.5882352941176470800 ) ;
#207 = PRODUCT_RELATED_PRODUCT_CATEGORY ( 'part', '', ( #5 ) ) ;
#208 = EDGE_CURVE ( 'NONE', #28, #98, #64, .T. ) ;
#209 = EDGE_CURVE ( 'NONE', #27, #39, #61, .T. ) ;
#210 = EDGE_CURVE ( 'NONE', #154, #98, #58, .T. ) ;
#211 = EDGE_CURVE ( 'NONE', #99, #28, #55, .T. ) ;
ENDSEC;
END-ISO-10303-21;
