ISO-10303-21;
HEADER;
FILE_DESCRIPTION (( 'STEP AP214' ),
    '1' );
FILE_NAME ('P250BD.step',
    '2012-04-20T21:01:17',
    ( '' ),
    ( '' ),
    'SwSTEP 2.0',
    'SolidWorks 2012',
    '' );
FILE_SCHEMA (( 'AUTOMOTIVE_DESIGN' ));
ENDSEC;

DATA;
#1 = DIMENSIONAL_EXPONENTS ( 1.000000000000000000, 0.0000000000000000000, 0.0000000000000000000, 0.0000000000000000000, 0.0000000000000000000, 0.0000000000000000000, 0.0000000000000000000 ) ;
#2 = DIMENSIONAL_EXPONENTS ( 1.000000000000000000, 0.0000000000000000000, 0.0000000000000000000, 0.0000000000000000000, 0.0000000000000000000, 0.0000000000000000000, 0.0000000000000000000 ) ;
#3 = DIMENSIONAL_EXPONENTS ( 1.000000000000000000, 0.0000000000000000000, 0.0000000000000000000, 0.0000000000000000000, 0.0000000000000000000, 0.0000000000000000000, 0.0000000000000000000 ) ;
#4 = PRODUCT ( 'P250BD', 'P250BD', '', ( #20 ) ) ;
#5 = CLOSED_SHELL ( 'NONE', ( #195, #194, #206, #198, #196, #197 ) ) ;
#6 = STYLED_ITEM ( 'NONE', ( #98 ), #179 ) ;
#7 = VECTOR ( 'NONE', #91, 39.37007874015748100 ) ;
#8 = PRESENTATION_LAYER_ASSIGNMENT (  '', '', ( #6 ) ) ;
#9 = AXIS2_PLACEMENT_3D ( 'NONE', #77, #76, #75 ) ;
#10 = MECHANICAL_DESIGN_GEOMETRIC_PRESENTATION_REPRESENTATION (  '', ( #6 ), #209 ) ;
#11 = LENGTH_MEASURE_WITH_UNIT ( LENGTH_MEASURE( 0.02539999999999999900 ), #97 );
#12 = FACE_OUTER_BOUND ( 'NONE', #24, .T. ) ;
#13 = APPLICATION_CONTEXT ( 'automotive_design' ) ;
#14 = APPLICATION_CONTEXT ( 'automotive_design' ) ;
#15 = UNCERTAINTY_MEASURE_WITH_UNIT (LENGTH_MEASURE( 1.000000000000000100E-005 ), #96, 'distance_accuracy_value', 'NONE');
#16 = ADVANCED_BREP_SHAPE_REPRESENTATION ( 'P250BD', ( #179, #166 ), #210 ) ;
#17 = UNCERTAINTY_MEASURE_WITH_UNIT (LENGTH_MEASURE( 1.000000000000000100E-005 ), #187, 'distance_accuracy_value', 'NONE');
#18 = UNCERTAINTY_MEASURE_WITH_UNIT (LENGTH_MEASURE( 1.000000000000000100E-005 ), #31, 'distance_accuracy_value', 'NONE');
#19 = APPLICATION_PROTOCOL_DEFINITION ( 'draft international standard', 'automotive_design', 1998, #14 ) ;
#20 = PRODUCT_CONTEXT ( 'NONE', #13, 'mechanical' ) ;
#21 = PRESENTATION_STYLE_ASSIGNMENT (( #22 ) ) ;
#22 = SURFACE_STYLE_USAGE ( .BOTH. , #23 ) ;
#23 = SURFACE_SIDE_STYLE ('',( #25 ) ) ;
#24 = EDGE_LOOP ( 'NONE', ( #112, #136, #118, #132 ) ) ;
#25 = SURFACE_STYLE_FILL_AREA ( #26 ) ;
#26 = FILL_AREA_STYLE ('',( #27 ) ) ;
#27 = FILL_AREA_STYLE_COLOUR ( '', #207 ) ;
#28 = EDGE_LOOP ( 'NONE', ( #142, #141, #140, #144 ) ) ;
#29 =( NAMED_UNIT ( * ) SI_UNIT ( $, .STERADIAN. ) SOLID_ANGLE_UNIT ( ) );
#30 =( NAMED_UNIT ( * ) PLANE_ANGLE_UNIT ( ) SI_UNIT ( $, .RADIAN. ) );
#31 =( CONVERSION_BASED_UNIT ( 'INCH', #173 ) LENGTH_UNIT ( ) NAMED_UNIT ( #1 ) );
#32 =( LENGTH_UNIT ( ) NAMED_UNIT ( * ) SI_UNIT ( $, .METRE. ) );
#33 = DIRECTION ( 'NONE',  ( 1.000000000000000000, 0.0000000000000000000, 2.731847993664264200E-016 ) ) ;
#34 = DIRECTION ( 'NONE',  ( -2.731847993664264200E-016, 0.0000000000000000000, 1.000000000000000000 ) ) ;
#35 = CARTESIAN_POINT ( 'NONE',  ( 0.0000000000000000000, 0.2500000000000000000, -0.5000000000000000000 ) ) ;
#36 = DIRECTION ( 'NONE',  ( -1.000000000000000000, -0.0000000000000000000, -2.731847993664264200E-016 ) ) ;
#37 = CARTESIAN_POINT ( 'NONE',  ( 0.0000000000000000000, 0.2500000000000000000, -0.5000000000000000000 ) ) ;
#38 = LINE ( 'NONE', #37, #169 ) ;
#39 = DIRECTION ( 'NONE',  ( -0.0000000000000000000, -1.000000000000000000, -0.0000000000000000000 ) ) ;
#40 = CARTESIAN_POINT ( 'NONE',  ( 0.2499999999999999200, 0.2500000000000000000, -0.4999999999999999400 ) ) ;
#41 = LINE ( 'NONE', #40, #164 ) ;
#42 = DIRECTION ( 'NONE',  ( -0.0000000000000000000, -1.000000000000000000, -0.0000000000000000000 ) ) ;
#43 = CARTESIAN_POINT ( 'NONE',  ( 0.0000000000000000000, 0.2500000000000000000, 0.0000000000000000000 ) ) ;
#44 = LINE ( 'NONE', #43, #168 ) ;
#45 = DIRECTION ( 'NONE',  ( 1.000000000000000000, -0.0000000000000000000, 2.449293598294706400E-016 ) ) ;
#46 = VERTEX_POINT ( 'NONE', #111 ) ;
#47 = CARTESIAN_POINT ( 'NONE',  ( 0.2500000000000000000, 0.2500000000000000000, 6.123233995736766000E-017 ) ) ;
#48 = LINE ( 'NONE', #47, #171 ) ;
#49 = DIRECTION ( 'NONE',  ( 1.000000000000000000, -0.0000000000000000000, 2.449293598294706400E-016 ) ) ;
#50 = CARTESIAN_POINT ( 'NONE',  ( 0.2500000000000000000, 0.0000000000000000000, 6.123233995736766000E-017 ) ) ;
#51 = LINE ( 'NONE', #50, #162 ) ;
#52 = DIRECTION ( 'NONE',  ( -1.365923996832131600E-016, -0.0000000000000000000, -1.000000000000000000 ) ) ;
#53 = CARTESIAN_POINT ( 'NONE',  ( 0.2499999999999999200, 0.0000000000000000000, -0.4999999999999999400 ) ) ;
#54 = LINE ( 'NONE', #53, #161 ) ;
#55 = PLANE ( 'NONE',  #170 ) ;
#56 = DIRECTION ( 'NONE',  ( -0.0000000000000000000, -1.000000000000000000, -0.0000000000000000000 ) ) ;
#57 = CARTESIAN_POINT ( 'NONE',  ( 0.2500000000000000000, 0.2500000000000000000, 6.123233995736766000E-017 ) ) ;
#58 = LINE ( 'NONE', #57, #174 ) ;
#59 = DIRECTION ( 'NONE',  ( 0.0000000000000000000, 0.0000000000000000000, -1.000000000000000000 ) ) ;
#60 = DIRECTION ( 'NONE',  ( 1.000000000000000000, -0.0000000000000000000, 0.0000000000000000000 ) ) ;
#61 = CARTESIAN_POINT ( 'NONE',  ( 0.0000000000000000000, 0.2500000000000000000, 0.0000000000000000000 ) ) ;
#62 = PLANE ( 'NONE',  #159 ) ;
#63 = DIRECTION ( 'NONE',  ( 0.0000000000000000000, 0.0000000000000000000, -1.000000000000000000 ) ) ;
#64 = DIRECTION ( 'NONE',  ( 0.0000000000000000000, -1.000000000000000000, 0.0000000000000000000 ) ) ;
#65 = CARTESIAN_POINT ( 'NONE',  ( 0.0000000000000000000, 0.0000000000000000000, 0.0000000000000000000 ) ) ;
#66 = PLANE ( 'NONE',  #165 ) ;
#67 = DIRECTION ( 'NONE',  ( 0.0000000000000000000, 0.0000000000000000000, -1.000000000000000000 ) ) ;
#68 = DIRECTION ( 'NONE',  ( 0.0000000000000000000, -1.000000000000000000, 0.0000000000000000000 ) ) ;
#69 = CARTESIAN_POINT ( 'NONE',  ( 0.0000000000000000000, 0.2500000000000000000, 0.0000000000000000000 ) ) ;
#70 = PLANE ( 'NONE',  #172 ) ;
#71 = DIRECTION ( 'NONE',  ( -1.000000000000000000, 0.0000000000000000000, -2.449293598294706400E-016 ) ) ;
#72 = DIRECTION ( 'NONE',  ( 2.449293598294706400E-016, 0.0000000000000000000, -1.000000000000000000 ) ) ;
#73 = CARTESIAN_POINT ( 'NONE',  ( 0.2500000000000000000, 0.2500000000000000000, 6.123233995736766000E-017 ) ) ;
#74 = PLANE ( 'NONE',  #151 ) ;
#75 = DIRECTION ( 'NONE',  ( 1.365923996832131600E-016, 0.0000000000000000000, 1.000000000000000000 ) ) ;
#76 = DIRECTION ( 'NONE',  ( -1.000000000000000000, 0.0000000000000000000, 1.365923996832131600E-016 ) ) ;
#77 = CARTESIAN_POINT ( 'NONE',  ( 0.2499999999999999200, 0.2500000000000000000, -0.4999999999999999400 ) ) ;
#78 = DIRECTION ( 'NONE',  ( -1.000000000000000000, -0.0000000000000000000, -2.731847993664264200E-016 ) ) ;
#79 = CARTESIAN_POINT ( 'NONE',  ( 0.0000000000000000000, 0.0000000000000000000, -0.5000000000000000000 ) ) ;
#80 = LINE ( 'NONE', #79, #158 ) ;
#81 = DIRECTION ( 'NONE',  ( -0.0000000000000000000, -1.000000000000000000, -0.0000000000000000000 ) ) ;
#82 = CARTESIAN_POINT ( 'NONE',  ( 0.0000000000000000000, 0.2500000000000000000, -0.5000000000000000000 ) ) ;
#83 = LINE ( 'NONE', #82, #167 ) ;
#84 = DIRECTION ( 'NONE',  ( -1.365923996832131600E-016, -0.0000000000000000000, -1.000000000000000000 ) ) ;
#85 = CARTESIAN_POINT ( 'NONE',  ( 0.2499999999999999200, 0.2500000000000000000, -0.4999999999999999400 ) ) ;
#86 = LINE ( 'NONE', #85, #160 ) ;
#87 = DIRECTION ( 'NONE',  ( -0.0000000000000000000, -0.0000000000000000000, 1.000000000000000000 ) ) ;
#88 = CARTESIAN_POINT ( 'NONE',  ( 0.0000000000000000000, 0.2500000000000000000, 0.0000000000000000000 ) ) ;
#89 = LINE ( 'NONE', #88, #153 ) ;
#90 = PLANE ( 'NONE',  #9 ) ;
#91 = DIRECTION ( 'NONE',  ( -0.0000000000000000000, -0.0000000000000000000, 1.000000000000000000 ) ) ;
#92 = CARTESIAN_POINT ( 'NONE',  ( 0.0000000000000000000, 0.0000000000000000000, 0.0000000000000000000 ) ) ;
#93 = LINE ( 'NONE', #92, #7 ) ;
#94 =( NAMED_UNIT ( * ) SI_UNIT ( $, .STERADIAN. ) SOLID_ANGLE_UNIT ( ) );
#95 =( NAMED_UNIT ( * ) PLANE_ANGLE_UNIT ( ) SI_UNIT ( $, .RADIAN. ) );
#96 =( CONVERSION_BASED_UNIT ( 'INCH', #11 ) LENGTH_UNIT ( ) NAMED_UNIT ( #3 ) );
#97 =( LENGTH_UNIT ( ) NAMED_UNIT ( * ) SI_UNIT ( $, .METRE. ) );
#98 = PRESENTATION_STYLE_ASSIGNMENT (( #99 ) ) ;
#99 = SURFACE_STYLE_USAGE ( .BOTH. , #100 ) ;
#100 = SURFACE_SIDE_STYLE ('',( #101 ) ) ;
#101 = SURFACE_STYLE_FILL_AREA ( #102 ) ;
#102 = FILL_AREA_STYLE ('',( #103 ) ) ;
#103 = FILL_AREA_STYLE_COLOUR ( '', #208 ) ;
#104 = CARTESIAN_POINT ( 'NONE',  ( 0.2500000000000000000, 0.2500000000000000000, 6.123233995736766000E-017 ) ) ;
#105 = CARTESIAN_POINT ( 'NONE',  ( 0.0000000000000000000, 0.0000000000000000000, 0.0000000000000000000 ) ) ;
#106 = CARTESIAN_POINT ( 'NONE',  ( 0.2500000000000000000, 0.0000000000000000000, 6.123233995736766000E-017 ) ) ;
#107 = CARTESIAN_POINT ( 'NONE',  ( 0.0000000000000000000, 0.2500000000000000000, 0.0000000000000000000 ) ) ;
#108 = CARTESIAN_POINT ( 'NONE',  ( 0.2499999999999999200, 0.0000000000000000000, -0.4999999999999999400 ) ) ;
#109 = CARTESIAN_POINT ( 'NONE',  ( 0.2499999999999999200, 0.2500000000000000000, -0.4999999999999999400 ) ) ;
#110 = CARTESIAN_POINT ( 'NONE',  ( 0.0000000000000000000, 0.0000000000000000000, -0.5000000000000000000 ) ) ;
#111 = CARTESIAN_POINT ( 'NONE',  ( 0.0000000000000000000, 0.2500000000000000000, -0.5000000000000000000 ) ) ;
#112 = ORIENTED_EDGE ( 'NONE', *, *, #200, .T. ) ;
#113 = ORIENTED_EDGE ( 'NONE', *, *, #203, .T. ) ;
#114 = EDGE_LOOP ( 'NONE', ( #138, #135, #137, #139 ) ) ;
#115 = ORIENTED_EDGE ( 'NONE', *, *, #199, .F. ) ;
#116 = ORIENTED_EDGE ( 'NONE', *, *, #202, .F. ) ;
#117 = ORIENTED_EDGE ( 'NONE', *, *, #201, .T. ) ;
#118 = ORIENTED_EDGE ( 'NONE', *, *, #191, .F. ) ;
#119 = EDGE_LOOP ( 'NONE', ( #117, #115, #116, #113 ) ) ;
#120 = EDGE_LOOP ( 'NONE', ( #129, #145, #130, #143 ) ) ;
#121 = EDGE_LOOP ( 'NONE', ( #134, #146, #133, #131 ) ) ;
#122 = VERTEX_POINT ( 'NONE', #110 ) ;
#123 = VERTEX_POINT ( 'NONE', #109 ) ;
#124 = VERTEX_POINT ( 'NONE', #108 ) ;
#125 = VERTEX_POINT ( 'NONE', #107 ) ;
#126 = VERTEX_POINT ( 'NONE', #106 ) ;
#127 = VERTEX_POINT ( 'NONE', #105 ) ;
#128 = VERTEX_POINT ( 'NONE', #104 ) ;
#129 = ORIENTED_EDGE ( 'NONE', *, *, #189, .T. ) ;
#130 = ORIENTED_EDGE ( 'NONE', *, *, #190, .F. ) ;
#131 = ORIENTED_EDGE ( 'NONE', *, *, #204, .T. ) ;
#132 = ORIENTED_EDGE ( 'NONE', *, *, #199, .T. ) ;
#133 = ORIENTED_EDGE ( 'NONE', *, *, #205, .F. ) ;
#134 = ORIENTED_EDGE ( 'NONE', *, *, #193, .T. ) ;
#135 = ORIENTED_EDGE ( 'NONE', *, *, #189, .F. ) ;
#136 = ORIENTED_EDGE ( 'NONE', *, *, #204, .F. ) ;
#137 = ORIENTED_EDGE ( 'NONE', *, *, #193, .F. ) ;
#138 = ORIENTED_EDGE ( 'NONE', *, *, #201, .F. ) ;
#139 = ORIENTED_EDGE ( 'NONE', *, *, #200, .F. ) ;
#140 = ORIENTED_EDGE ( 'NONE', *, *, #205, .T. ) ;
#141 = ORIENTED_EDGE ( 'NONE', *, *, #191, .T. ) ;
#142 = ORIENTED_EDGE ( 'NONE', *, *, #202, .T. ) ;
#143 = ORIENTED_EDGE ( 'NONE', *, *, #192, .T. ) ;
#144 = ORIENTED_EDGE ( 'NONE', *, *, #190, .T. ) ;
#145 = ORIENTED_EDGE ( 'NONE', *, *, #203, .F. ) ;
#146 = ORIENTED_EDGE ( 'NONE', *, *, #192, .F. ) ;
#147 = STYLED_ITEM ( 'NONE', ( #21 ), #16 ) ;
#148 = PRODUCT_DEFINITION_FORMATION_WITH_SPECIFIED_SOURCE ( 'ANY', '', #4, .NOT_KNOWN. ) ;
#149 = MECHANICAL_DESIGN_GEOMETRIC_PRESENTATION_REPRESENTATION (  '', ( #147 ), #211 ) ;
#150 = PRESENTATION_LAYER_ASSIGNMENT (  '', '', ( #147 ) ) ;
#151 = AXIS2_PLACEMENT_3D ( 'NONE', #73, #72, #71 ) ;
#152 = FACE_OUTER_BOUND ( 'NONE', #114, .T. ) ;
#153 = VECTOR ( 'NONE', #87, 39.37007874015748100 ) ;
#154 = FACE_OUTER_BOUND ( 'NONE', #120, .T. ) ;
#155 = FACE_OUTER_BOUND ( 'NONE', #119, .T. ) ;
#156 = FACE_OUTER_BOUND ( 'NONE', #28, .T. ) ;
#157 = FACE_OUTER_BOUND ( 'NONE', #121, .T. ) ;
#158 = VECTOR ( 'NONE', #78, 39.37007874015748100 ) ;
#159 = AXIS2_PLACEMENT_3D ( 'NONE', #61, #60, #59 ) ;
#160 = VECTOR ( 'NONE', #84, 39.37007874015748100 ) ;
#161 = VECTOR ( 'NONE', #52, 39.37007874015748100 ) ;
#162 = VECTOR ( 'NONE', #49, 39.37007874015748100 ) ;
#163 = LENGTH_MEASURE_WITH_UNIT ( LENGTH_MEASURE( 0.02539999999999999900 ), #188 );
#164 = VECTOR ( 'NONE', #39, 39.37007874015748100 ) ;
#165 = AXIS2_PLACEMENT_3D ( 'NONE', #65, #64, #63 ) ;
#166 = AXIS2_PLACEMENT_3D ( 'NONE', #184, #183, #182 ) ;
#167 = VECTOR ( 'NONE', #81, 39.37007874015748100 ) ;
#168 = VECTOR ( 'NONE', #42, 39.37007874015748100 ) ;
#169 = VECTOR ( 'NONE', #36, 39.37007874015748100 ) ;
#170 = AXIS2_PLACEMENT_3D ( 'NONE', #35, #34, #33 ) ;
#171 = VECTOR ( 'NONE', #45, 39.37007874015748100 ) ;
#172 = AXIS2_PLACEMENT_3D ( 'NONE', #69, #68, #67 ) ;
#173 = LENGTH_MEASURE_WITH_UNIT ( LENGTH_MEASURE( 0.02539999999999999900 ), #32 );
#174 = VECTOR ( 'NONE', #56, 39.37007874015748100 ) ;
#175 = PRODUCT_DEFINITION ( 'UNKNOWN', '', #148, #178 ) ;
#176 = PRODUCT_RELATED_PRODUCT_CATEGORY ( 'part', '', ( #4 ) ) ;
#177 = PRODUCT_DEFINITION_SHAPE ( 'NONE', 'NONE',  #175 ) ;
#178 = PRODUCT_DEFINITION_CONTEXT ( 'detailed design', #14, 'design' ) ;
#179 = MANIFOLD_SOLID_BREP ( 'Boss-Extrude1', #5 ) ;
#180 = APPLICATION_PROTOCOL_DEFINITION ( 'draft international standard', 'automotive_design', 1998, #13 ) ;
#181 = SHAPE_DEFINITION_REPRESENTATION ( #177, #16 ) ;
#182 = DIRECTION ( 'NONE',  ( 1.000000000000000000, 0.0000000000000000000, 0.0000000000000000000 ) ) ;
#183 = DIRECTION ( 'NONE',  ( 0.0000000000000000000, 0.0000000000000000000, 1.000000000000000000 ) ) ;
#184 = CARTESIAN_POINT ( 'NONE',  ( 0.0000000000000000000, 0.0000000000000000000, 0.0000000000000000000 ) ) ;
#185 =( NAMED_UNIT ( * ) SI_UNIT ( $, .STERADIAN. ) SOLID_ANGLE_UNIT ( ) );
#186 =( NAMED_UNIT ( * ) PLANE_ANGLE_UNIT ( ) SI_UNIT ( $, .RADIAN. ) );
#187 =( CONVERSION_BASED_UNIT ( 'INCH', #163 ) LENGTH_UNIT ( ) NAMED_UNIT ( #2 ) );
#188 =( LENGTH_UNIT ( ) NAMED_UNIT ( * ) SI_UNIT ( $, .METRE. ) );
#189 = EDGE_CURVE ( 'NONE', #122, #127, #93, .T. ) ;
#190 = EDGE_CURVE ( 'NONE', #46, #125, #89, .T. ) ;
#191 = EDGE_CURVE ( 'NONE', #128, #123, #86, .T. ) ;
#192 = EDGE_CURVE ( 'NONE', #46, #122, #83, .T. ) ;
#193 = EDGE_CURVE ( 'NONE', #124, #122, #80, .T. ) ;
#194 = ADVANCED_FACE ( 'NONE', ( #12 ), #90, .F. ) ;
#195 = ADVANCED_FACE ( 'NONE', ( #155 ), #74, .F. ) ;
#196 = ADVANCED_FACE ( 'NONE', ( #156 ), #70, .F. ) ;
#197 = ADVANCED_FACE ( 'NONE', ( #152 ), #66, .T. ) ;
#198 = ADVANCED_FACE ( 'NONE', ( #154 ), #62, .F. ) ;
#199 = EDGE_CURVE ( 'NONE', #128, #126, #58, .T. ) ;
#200 = EDGE_CURVE ( 'NONE', #126, #124, #54, .T. ) ;
#201 = EDGE_CURVE ( 'NONE', #127, #126, #51, .T. ) ;
#202 = EDGE_CURVE ( 'NONE', #125, #128, #48, .T. ) ;
#203 = EDGE_CURVE ( 'NONE', #125, #127, #44, .T. ) ;
#204 = EDGE_CURVE ( 'NONE', #123, #124, #41, .T. ) ;
#205 = EDGE_CURVE ( 'NONE', #123, #46, #38, .T. ) ;
#206 = ADVANCED_FACE ( 'NONE', ( #157 ), #55, .F. ) ;
#207 = COLOUR_RGB ( '',0.5686274509803921400, 0.5686274509803921400, 0.5882352941176470800 ) ;
#208 = COLOUR_RGB ( '',0.5686274509803921400, 0.5686274509803921400, 0.5882352941176470800 ) ;
#209 =( GEOMETRIC_REPRESENTATION_CONTEXT ( 3 ) GLOBAL_UNCERTAINTY_ASSIGNED_CONTEXT ( ( #15 ) ) GLOBAL_UNIT_ASSIGNED_CONTEXT ( ( #96, #95, #94 ) ) REPRESENTATION_CONTEXT ( 'NONE', 'WORKASPACE' ) );
#210 =( GEOMETRIC_REPRESENTATION_CONTEXT ( 3 ) GLOBAL_UNCERTAINTY_ASSIGNED_CONTEXT ( ( #18 ) ) GLOBAL_UNIT_ASSIGNED_CONTEXT ( ( #31, #30, #29 ) ) REPRESENTATION_CONTEXT ( 'NONE', 'WORKASPACE' ) );
#211 =( GEOMETRIC_REPRESENTATION_CONTEXT ( 3 ) GLOBAL_UNCERTAINTY_ASSIGNED_CONTEXT ( ( #17 ) ) GLOBAL_UNIT_ASSIGNED_CONTEXT ( ( #187, #186, #185 ) ) REPRESENTATION_CONTEXT ( 'NONE', 'WORKASPACE' ) );
ENDSEC;
END-ISO-10303-21;
