ISO-10303-21;
HEADER;
FILE_DESCRIPTION (( 'STEP AP214' ),
    '1' );
FILE_NAME ('P250DF.step',
    '2012-04-20T21:01:25',
    ( '' ),
    ( '' ),
    'SwSTEP 2.0',
    'SolidWorks 2012',
    '' );
FILE_SCHEMA (( 'AUTOMOTIVE_DESIGN' ));
ENDSEC;

DATA;
#1 = DIMENSIONAL_EXPONENTS ( 1.000000000000000000, 0.0000000000000000000, 0.0000000000000000000, 0.0000000000000000000, 0.0000000000000000000, 0.0000000000000000000, 0.0000000000000000000 ) ;
#2 = PRODUCT ( 'P250DF', 'P250DF', '', ( #20 ) ) ;
#3 = DIMENSIONAL_EXPONENTS ( 1.000000000000000000, 0.0000000000000000000, 0.0000000000000000000, 0.0000000000000000000, 0.0000000000000000000, 0.0000000000000000000, 0.0000000000000000000 ) ;
#4 = DIMENSIONAL_EXPONENTS ( 1.000000000000000000, 0.0000000000000000000, 0.0000000000000000000, 0.0000000000000000000, 0.0000000000000000000, 0.0000000000000000000, 0.0000000000000000000 ) ;
#5 = AXIS2_PLACEMENT_3D ( 'NONE', #79, #78, #77 ) ;
#6 = CLOSED_SHELL ( 'NONE', ( #206, #208, #193, #194, #195, #201 ) ) ;
#7 = VECTOR ( 'NONE', #93, 39.37007874015748100 ) ;
#8 = PRESENTATION_LAYER_ASSIGNMENT (  '', '', ( #11 ) ) ;
#9 = VECTOR ( 'NONE', #97, 39.37007874015748100 ) ;
#10 = VECTOR ( 'NONE', #90, 39.37007874015748100 ) ;
#11 = STYLED_ITEM ( 'NONE', ( #84 ), #155 ) ;
#12 = LENGTH_MEASURE_WITH_UNIT ( LENGTH_MEASURE( 0.02539999999999999900 ), #83 );
#13 = MECHANICAL_DESIGN_GEOMETRIC_PRESENTATION_REPRESENTATION (  '', ( #11 ), #14 ) ;
#14 =( GEOMETRIC_REPRESENTATION_CONTEXT ( 3 ) GLOBAL_UNCERTAINTY_ASSIGNED_CONTEXT ( ( #148 ) ) GLOBAL_UNIT_ASSIGNED_CONTEXT ( ( #82, #81, #80 ) ) REPRESENTATION_CONTEXT ( 'NONE', 'WORKASPACE' ) );
#15 =( GEOMETRIC_REPRESENTATION_CONTEXT ( 3 ) GLOBAL_UNCERTAINTY_ASSIGNED_CONTEXT ( ( #149 ) ) GLOBAL_UNIT_ASSIGNED_CONTEXT ( ( #24, #23, #22 ) ) REPRESENTATION_CONTEXT ( 'NONE', 'WORKASPACE' ) );
#16 =( GEOMETRIC_REPRESENTATION_CONTEXT ( 3 ) GLOBAL_UNCERTAINTY_ASSIGNED_CONTEXT ( ( #147 ) ) GLOBAL_UNIT_ASSIGNED_CONTEXT ( ( #189, #190, #188 ) ) REPRESENTATION_CONTEXT ( 'NONE', 'WORKASPACE' ) );
#17 = APPLICATION_CONTEXT ( 'automotive_design' ) ;
#18 = APPLICATION_CONTEXT ( 'automotive_design' ) ;
#19 = APPLICATION_PROTOCOL_DEFINITION ( 'draft international standard', 'automotive_design', 1998, #17 ) ;
#20 = PRODUCT_CONTEXT ( 'NONE', #17, 'mechanical' ) ;
#21 = APPLICATION_PROTOCOL_DEFINITION ( 'draft international standard', 'automotive_design', 1998, #18 ) ;
#22 =( NAMED_UNIT ( * ) SI_UNIT ( $, .STERADIAN. ) SOLID_ANGLE_UNIT ( ) );
#23 =( NAMED_UNIT ( * ) PLANE_ANGLE_UNIT ( ) SI_UNIT ( $, .RADIAN. ) );
#24 =( CONVERSION_BASED_UNIT ( 'INCH', #164 ) LENGTH_UNIT ( ) NAMED_UNIT ( #1 ) );
#25 =( LENGTH_UNIT ( ) NAMED_UNIT ( * ) SI_UNIT ( $, .METRE. ) );
#26 = DIRECTION ( 'NONE',  ( -0.0000000000000000000, -1.000000000000000000, -0.0000000000000000000 ) ) ;
#27 = FILL_AREA_STYLE ('',( #29 ) ) ;
#28 = CARTESIAN_POINT ( 'NONE',  ( 0.0000000000000000000, 0.2500000000000000000, -0.7500000000000001100 ) ) ;
#29 = FILL_AREA_STYLE_COLOUR ( '', #197 ) ;
#30 = SURFACE_STYLE_FILL_AREA ( #27 ) ;
#31 = LINE ( 'NONE', #28, #163 ) ;
#32 = DIRECTION ( 'NONE',  ( -1.000000000000000000, -0.0000000000000000000, -2.731847993664263700E-016 ) ) ;
#33 = CARTESIAN_POINT ( 'NONE',  ( 0.0000000000000000000, 0.0000000000000000000, -0.7500000000000001100 ) ) ;
#34 = LINE ( 'NONE', #33, #157 ) ;
#35 = LINE ( 'NONE', #38, #179 ) ;
#36 = CARTESIAN_POINT ( 'NONE',  ( 0.4999999999999999400, 0.2500000000000000000, -0.7499999999999998900 ) ) ;
#37 = DIRECTION ( 'NONE',  ( -9.106159978880878600E-017, -0.0000000000000000000, -1.000000000000000000 ) ) ;
#38 = CARTESIAN_POINT ( 'NONE',  ( 0.4999999999999999400, 0.2500000000000000000, -0.7499999999999998900 ) ) ;
#39 = CARTESIAN_POINT ( 'NONE',  ( 0.4999999999999999400, 0.2500000000000000000, -0.7499999999999998900 ) ) ;
#40 = DIRECTION ( 'NONE',  ( -1.000000000000000000, 0.0000000000000000000, 9.106159978880878600E-017 ) ) ;
#41 = DIRECTION ( 'NONE',  ( 9.106159978880878600E-017, 0.0000000000000000000, 1.000000000000000000 ) ) ;
#42 = DIRECTION ( 'NONE',  ( -6.123233995736766000E-017, 0.0000000000000000000, -1.000000000000000000 ) ) ;
#43 = DIRECTION ( 'NONE',  ( -0.0000000000000000000, -1.000000000000000000, -0.0000000000000000000 ) ) ;
#44 = PLANE ( 'NONE',  #156 ) ;
#45 = SURFACE_SIDE_STYLE ('',( #30 ) ) ;
#46 = CARTESIAN_POINT ( 'NONE',  ( 0.5000000000000000000, 0.2500000000000000000, -3.061616997868383000E-017 ) ) ;
#47 = DIRECTION ( 'NONE',  ( -1.000000000000000000, -0.0000000000000000000, -2.731847993664263700E-016 ) ) ;
#48 = LINE ( 'NONE', #39, #176 ) ;
#49 = DIRECTION ( 'NONE',  ( -1.000000000000000000, 0.0000000000000000000, 6.123233995736766000E-017 ) ) ;
#50 = CARTESIAN_POINT ( 'NONE',  ( 0.0000000000000000000, 0.2500000000000000000, -0.7500000000000001100 ) ) ;
#51 = LINE ( 'NONE', #50, #161 ) ;
#52 = DIRECTION ( 'NONE',  ( -0.0000000000000000000, -1.000000000000000000, -0.0000000000000000000 ) ) ;
#53 = CARTESIAN_POINT ( 'NONE',  ( 0.5000000000000000000, 0.2500000000000000000, -3.061616997868383000E-017 ) ) ;
#54 = LINE ( 'NONE', #53, #159 ) ;
#55 = DIRECTION ( 'NONE',  ( -0.0000000000000000000, -0.0000000000000000000, 1.000000000000000000 ) ) ;
#56 = CARTESIAN_POINT ( 'NONE',  ( 0.0000000000000000000, 0.0000000000000000000, 0.0000000000000000000 ) ) ;
#57 = LINE ( 'NONE', #56, #158 ) ;
#58 = PLANE ( 'NONE',  #181 ) ;
#59 = DIRECTION ( 'NONE',  ( -0.0000000000000000000, -0.0000000000000000000, 1.000000000000000000 ) ) ;
#60 = CARTESIAN_POINT ( 'NONE',  ( 0.0000000000000000000, 0.2500000000000000000, 0.0000000000000000000 ) ) ;
#61 = LINE ( 'NONE', #60, #165 ) ;
#62 = DIRECTION ( 'NONE',  ( 0.0000000000000000000, 0.0000000000000000000, -1.000000000000000000 ) ) ;
#63 = DIRECTION ( 'NONE',  ( 0.0000000000000000000, -1.000000000000000000, -0.0000000000000000000 ) ) ;
#64 = CARTESIAN_POINT ( 'NONE',  ( 0.0000000000000000000, 0.0000000000000000000, 0.0000000000000000000 ) ) ;
#65 = PLANE ( 'NONE',  #168 ) ;
#66 = DIRECTION ( 'NONE',  ( -9.106159978880878600E-017, -0.0000000000000000000, -1.000000000000000000 ) ) ;
#67 = CARTESIAN_POINT ( 'NONE',  ( 0.4999999999999999400, 0.0000000000000000000, -0.7499999999999998900 ) ) ;
#68 = LINE ( 'NONE', #67, #166 ) ;
#69 = DIRECTION ( 'NONE',  ( 0.0000000000000000000, 0.0000000000000000000, -1.000000000000000000 ) ) ;
#70 = DIRECTION ( 'NONE',  ( 0.0000000000000000000, -1.000000000000000000, -0.0000000000000000000 ) ) ;
#71 = CARTESIAN_POINT ( 'NONE',  ( 0.0000000000000000000, 0.2500000000000000000, 0.0000000000000000000 ) ) ;
#72 = PLANE ( 'NONE',  #171 ) ;
#73 = DIRECTION ( 'NONE',  ( 0.0000000000000000000, 0.0000000000000000000, -1.000000000000000000 ) ) ;
#74 = DIRECTION ( 'NONE',  ( 1.000000000000000000, -0.0000000000000000000, 0.0000000000000000000 ) ) ;
#75 = CARTESIAN_POINT ( 'NONE',  ( 0.0000000000000000000, 0.2500000000000000000, 0.0000000000000000000 ) ) ;
#76 = PLANE ( 'NONE',  #173 ) ;
#77 = DIRECTION ( 'NONE',  ( 1.000000000000000000, 0.0000000000000000000, 2.731847993664263700E-016 ) ) ;
#78 = DIRECTION ( 'NONE',  ( -2.731847993664263700E-016, 0.0000000000000000000, 1.000000000000000000 ) ) ;
#79 = CARTESIAN_POINT ( 'NONE',  ( 0.0000000000000000000, 0.2500000000000000000, -0.7500000000000001100 ) ) ;
#80 =( NAMED_UNIT ( * ) SI_UNIT ( $, .STERADIAN. ) SOLID_ANGLE_UNIT ( ) );
#81 =( NAMED_UNIT ( * ) PLANE_ANGLE_UNIT ( ) SI_UNIT ( $, .RADIAN. ) );
#82 =( CONVERSION_BASED_UNIT ( 'INCH', #12 ) LENGTH_UNIT ( ) NAMED_UNIT ( #3 ) );
#83 =( LENGTH_UNIT ( ) NAMED_UNIT ( * ) SI_UNIT ( $, .METRE. ) );
#84 = PRESENTATION_STYLE_ASSIGNMENT (( #85 ) ) ;
#85 = SURFACE_STYLE_USAGE ( .BOTH. , #86 ) ;
#86 = SURFACE_SIDE_STYLE ('',( #87 ) ) ;
#87 = SURFACE_STYLE_FILL_AREA ( #88 ) ;
#88 = FILL_AREA_STYLE ('',( #89 ) ) ;
#89 = FILL_AREA_STYLE_COLOUR ( '', #198 ) ;
#90 = DIRECTION ( 'NONE',  ( 1.000000000000000000, -0.0000000000000000000, -6.123233995736766000E-017 ) ) ;
#91 = CARTESIAN_POINT ( 'NONE',  ( 0.5000000000000000000, 0.2500000000000000000, -3.061616997868383000E-017 ) ) ;
#92 = LINE ( 'NONE', #91, #10 ) ;
#93 = DIRECTION ( 'NONE',  ( 1.000000000000000000, -0.0000000000000000000, -6.123233995736766000E-017 ) ) ;
#94 = CARTESIAN_POINT ( 'NONE',  ( 0.5000000000000000000, 0.0000000000000000000, -3.061616997868383000E-017 ) ) ;
#95 = LINE ( 'NONE', #94, #7 ) ;
#96 = PLANE ( 'NONE',  #5 ) ;
#97 = DIRECTION ( 'NONE',  ( -0.0000000000000000000, -1.000000000000000000, -0.0000000000000000000 ) ) ;
#98 = CARTESIAN_POINT ( 'NONE',  ( 0.0000000000000000000, 0.2500000000000000000, 0.0000000000000000000 ) ) ;
#99 = CARTESIAN_POINT ( 'NONE',  ( 0.5000000000000000000, 0.2500000000000000000, -3.061616997868383000E-017 ) ) ;
#100 = CARTESIAN_POINT ( 'NONE',  ( 0.4999999999999999400, 0.0000000000000000000, -0.7499999999999998900 ) ) ;
#101 = LINE ( 'NONE', #98, #9 ) ;
#102 = CARTESIAN_POINT ( 'NONE',  ( 0.5000000000000000000, 0.0000000000000000000, -3.061616997868383000E-017 ) ) ;
#103 = CARTESIAN_POINT ( 'NONE',  ( 0.0000000000000000000, 0.2500000000000000000, 0.0000000000000000000 ) ) ;
#104 = CARTESIAN_POINT ( 'NONE',  ( 0.4999999999999999400, 0.2500000000000000000, -0.7499999999999998900 ) ) ;
#105 = CARTESIAN_POINT ( 'NONE',  ( 0.0000000000000000000, 0.0000000000000000000, -0.7500000000000001100 ) ) ;
#106 = CARTESIAN_POINT ( 'NONE',  ( 0.0000000000000000000, 0.0000000000000000000, 0.0000000000000000000 ) ) ;
#107 = CARTESIAN_POINT ( 'NONE',  ( 0.0000000000000000000, 0.2500000000000000000, -0.7500000000000001100 ) ) ;
#108 = ORIENTED_EDGE ( 'NONE', *, *, #203, .F. ) ;
#109 = ORIENTED_EDGE ( 'NONE', *, *, #210, .F. ) ;
#110 = ORIENTED_EDGE ( 'NONE', *, *, #209, .F. ) ;
#111 = ORIENTED_EDGE ( 'NONE', *, *, #151, .F. ) ;
#112 = ORIENTED_EDGE ( 'NONE', *, *, #200, .F. ) ;
#113 = ORIENTED_EDGE ( 'NONE', *, *, #205, .T. ) ;
#114 = ORIENTED_EDGE ( 'NONE', *, *, #209, .T. ) ;
#115 = ORIENTED_EDGE ( 'NONE', *, *, #152, .T. ) ;
#116 = ORIENTED_EDGE ( 'NONE', *, *, #211, .T. ) ;
#117 = ORIENTED_EDGE ( 'NONE', *, *, #202, .T. ) ;
#118 = ORIENTED_EDGE ( 'NONE', *, *, #150, .F. ) ;
#119 = EDGE_LOOP ( 'NONE', ( #141, #140, #110, #139 ) ) ;
#120 = EDGE_LOOP ( 'NONE', ( #138, #136, #137, #135 ) ) ;
#121 = EDGE_LOOP ( 'NONE', ( #145, #143, #144, #142 ) ) ;
#122 = EDGE_LOOP ( 'NONE', ( #133, #118, #134, #116 ) ) ;
#123 = EDGE_LOOP ( 'NONE', ( #115, #114, #113, #117 ) ) ;
#124 = EDGE_LOOP ( 'NONE', ( #111, #108, #109, #112 ) ) ;
#125 = VERTEX_POINT ( 'NONE', #105 ) ;
#126 = VERTEX_POINT ( 'NONE', #107 ) ;
#127 = VERTEX_POINT ( 'NONE', #106 ) ;
#128 = VERTEX_POINT ( 'NONE', #102 ) ;
#129 = VERTEX_POINT ( 'NONE', #103 ) ;
#130 = VERTEX_POINT ( 'NONE', #104 ) ;
#131 = VERTEX_POINT ( 'NONE', #99 ) ;
#132 = VERTEX_POINT ( 'NONE', #100 ) ;
#133 = ORIENTED_EDGE ( 'NONE', *, *, #203, .T. ) ;
#134 = ORIENTED_EDGE ( 'NONE', *, *, #202, .F. ) ;
#135 = ORIENTED_EDGE ( 'NONE', *, *, #207, .T. ) ;
#136 = ORIENTED_EDGE ( 'NONE', *, *, #211, .F. ) ;
#137 = ORIENTED_EDGE ( 'NONE', *, *, #205, .F. ) ;
#138 = ORIENTED_EDGE ( 'NONE', *, *, #210, .T. ) ;
#139 = ORIENTED_EDGE ( 'NONE', *, *, #204, .T. ) ;
#140 = ORIENTED_EDGE ( 'NONE', *, *, #207, .F. ) ;
#141 = ORIENTED_EDGE ( 'NONE', *, *, #200, .T. ) ;
#142 = ORIENTED_EDGE ( 'NONE', *, *, #150, .T. ) ;
#143 = ORIENTED_EDGE ( 'NONE', *, *, #204, .F. ) ;
#144 = ORIENTED_EDGE ( 'NONE', *, *, #152, .F. ) ;
#145 = ORIENTED_EDGE ( 'NONE', *, *, #151, .T. ) ;
#146 = ADVANCED_BREP_SHAPE_REPRESENTATION ( 'P250DF', ( #155, #182 ), #15 ) ;
#147 = UNCERTAINTY_MEASURE_WITH_UNIT (LENGTH_MEASURE( 1.000000000000000100E-005 ), #189, 'distance_accuracy_value', 'NONE');
#148 = UNCERTAINTY_MEASURE_WITH_UNIT (LENGTH_MEASURE( 1.000000000000000100E-005 ), #82, 'distance_accuracy_value', 'NONE');
#149 = UNCERTAINTY_MEASURE_WITH_UNIT (LENGTH_MEASURE( 1.000000000000000100E-005 ), #24, 'distance_accuracy_value', 'NONE');
#150 = EDGE_CURVE ( 'NONE', #129, #127, #101, .T. ) ;
#151 = EDGE_CURVE ( 'NONE', #127, #128, #95, .T. ) ;
#152 = EDGE_CURVE ( 'NONE', #129, #131, #92, .T. ) ;
#153 = PRODUCT_DEFINITION_SHAPE ( 'NONE', 'NONE',  #196 ) ;
#154 = PRODUCT_DEFINITION_CONTEXT ( 'detailed design', #18, 'design' ) ;
#155 = MANIFOLD_SOLID_BREP ( 'Boss-Extrude1', #6 ) ;
#156 = AXIS2_PLACEMENT_3D ( 'NONE', #36, #40, #41 ) ;
#157 = VECTOR ( 'NONE', #32, 39.37007874015748100 ) ;
#158 = VECTOR ( 'NONE', #55, 39.37007874015748100 ) ;
#159 = VECTOR ( 'NONE', #52, 39.37007874015748100 ) ;
#160 = FACE_OUTER_BOUND ( 'NONE', #122, .T. ) ;
#161 = VECTOR ( 'NONE', #47, 39.37007874015748100 ) ;
#162 = FACE_OUTER_BOUND ( 'NONE', #119, .T. ) ;
#163 = VECTOR ( 'NONE', #26, 39.37007874015748100 ) ;
#164 = LENGTH_MEASURE_WITH_UNIT ( LENGTH_MEASURE( 0.02539999999999999900 ), #25 );
#165 = VECTOR ( 'NONE', #59, 39.37007874015748100 ) ;
#166 = VECTOR ( 'NONE', #66, 39.37007874015748100 ) ;
#167 = STYLED_ITEM ( 'NONE', ( #186 ), #146 ) ;
#168 = AXIS2_PLACEMENT_3D ( 'NONE', #64, #63, #62 ) ;
#169 = PRESENTATION_LAYER_ASSIGNMENT (  '', '', ( #167 ) ) ;
#170 = FACE_OUTER_BOUND ( 'NONE', #124, .T. ) ;
#171 = AXIS2_PLACEMENT_3D ( 'NONE', #71, #70, #69 ) ;
#172 = FACE_OUTER_BOUND ( 'NONE', #121, .T. ) ;
#173 = AXIS2_PLACEMENT_3D ( 'NONE', #75, #74, #73 ) ;
#174 = FACE_OUTER_BOUND ( 'NONE', #123, .T. ) ;
#175 = MECHANICAL_DESIGN_GEOMETRIC_PRESENTATION_REPRESENTATION (  '', ( #167 ), #16 ) ;
#176 = VECTOR ( 'NONE', #43, 39.37007874015748100 ) ;
#177 = LENGTH_MEASURE_WITH_UNIT ( LENGTH_MEASURE( 0.02539999999999999900 ), #187 );
#178 = FACE_OUTER_BOUND ( 'NONE', #120, .T. ) ;
#179 = VECTOR ( 'NONE', #37, 39.37007874015748100 ) ;
#180 = PRODUCT_DEFINITION_FORMATION_WITH_SPECIFIED_SOURCE ( 'ANY', '', #2, .NOT_KNOWN. ) ;
#181 = AXIS2_PLACEMENT_3D ( 'NONE', #46, #42, #49 ) ;
#182 = AXIS2_PLACEMENT_3D ( 'NONE', #185, #184, #183 ) ;
#183 = DIRECTION ( 'NONE',  ( 1.000000000000000000, 0.0000000000000000000, 0.0000000000000000000 ) ) ;
#184 = DIRECTION ( 'NONE',  ( 0.0000000000000000000, 0.0000000000000000000, 1.000000000000000000 ) ) ;
#185 = CARTESIAN_POINT ( 'NONE',  ( 0.0000000000000000000, 0.0000000000000000000, 0.0000000000000000000 ) ) ;
#186 = PRESENTATION_STYLE_ASSIGNMENT (( #191 ) ) ;
#187 =( LENGTH_UNIT ( ) NAMED_UNIT ( * ) SI_UNIT ( $, .METRE. ) );
#188 =( NAMED_UNIT ( * ) SI_UNIT ( $, .STERADIAN. ) SOLID_ANGLE_UNIT ( ) );
#189 =( CONVERSION_BASED_UNIT ( 'INCH', #177 ) LENGTH_UNIT ( ) NAMED_UNIT ( #4 ) );
#190 =( NAMED_UNIT ( * ) PLANE_ANGLE_UNIT ( ) SI_UNIT ( $, .RADIAN. ) );
#191 = SURFACE_STYLE_USAGE ( .BOTH. , #45 ) ;
#192 = SHAPE_DEFINITION_REPRESENTATION ( #153, #146 ) ;
#193 = ADVANCED_FACE ( 'NONE', ( #178 ), #96, .F. ) ;
#194 = ADVANCED_FACE ( 'NONE', ( #160 ), #76, .F. ) ;
#195 = ADVANCED_FACE ( 'NONE', ( #174 ), #72, .F. ) ;
#196 = PRODUCT_DEFINITION ( 'UNKNOWN', '', #180, #154 ) ;
#197 = COLOUR_RGB ( '',0.5686274509803921400, 0.5686274509803921400, 0.5882352941176470800 ) ;
#198 = COLOUR_RGB ( '',0.5686274509803921400, 0.5686274509803921400, 0.5882352941176470800 ) ;
#199 = PRODUCT_RELATED_PRODUCT_CATEGORY ( 'part', '', ( #2 ) ) ;
#200 = EDGE_CURVE ( 'NONE', #128, #132, #68, .T. ) ;
#201 = ADVANCED_FACE ( 'NONE', ( #170 ), #65, .T. ) ;
#202 = EDGE_CURVE ( 'NONE', #126, #129, #61, .T. ) ;
#203 = EDGE_CURVE ( 'NONE', #125, #127, #57, .T. ) ;
#204 = EDGE_CURVE ( 'NONE', #131, #128, #54, .T. ) ;
#205 = EDGE_CURVE ( 'NONE', #130, #126, #51, .T. ) ;
#206 = ADVANCED_FACE ( 'NONE', ( #172 ), #58, .F. ) ;
#207 = EDGE_CURVE ( 'NONE', #130, #132, #48, .T. ) ;
#208 = ADVANCED_FACE ( 'NONE', ( #162 ), #44, .F. ) ;
#209 = EDGE_CURVE ( 'NONE', #131, #130, #35, .T. ) ;
#210 = EDGE_CURVE ( 'NONE', #132, #125, #34, .T. ) ;
#211 = EDGE_CURVE ( 'NONE', #126, #125, #31, .T. ) ;
ENDSEC;
END-ISO-10303-21;
