ISO-10303-21;
HEADER;
FILE_DESCRIPTION (( 'STEP AP214' ),
    '1' );
FILE_NAME ('P500-100P.step',
    '2012-04-20T21:01:48',
    ( '' ),
    ( '' ),
    'SwSTEP 2.0',
    'SolidWorks 2012',
    '' );
FILE_SCHEMA (( 'AUTOMOTIVE_DESIGN' ));
ENDSEC;

DATA;
#1 = DIMENSIONAL_EXPONENTS ( 1.000000000000000000, 0.0000000000000000000, 0.0000000000000000000, 0.0000000000000000000, 0.0000000000000000000, 0.0000000000000000000, 0.0000000000000000000 ) ;
#2 = DIMENSIONAL_EXPONENTS ( 1.000000000000000000, 0.0000000000000000000, 0.0000000000000000000, 0.0000000000000000000, 0.0000000000000000000, 0.0000000000000000000, 0.0000000000000000000 ) ;
#3 = DIMENSIONAL_EXPONENTS ( 1.000000000000000000, 0.0000000000000000000, 0.0000000000000000000, 0.0000000000000000000, 0.0000000000000000000, 0.0000000000000000000, 0.0000000000000000000 ) ;
#4 = PRODUCT ( 'P500-100P', 'P500-100P', '', ( #208 ) ) ;
#5 = FACE_OUTER_BOUND ( 'NONE', #134, .T. ) ;
#6 = VECTOR ( 'NONE', #96, 39.37007874015748100 ) ;
#7 = VECTOR ( 'NONE', #99, 39.37007874015748100 ) ;
#8 = FACE_OUTER_BOUND ( 'NONE', #139, .T. ) ;
#9 = VECTOR ( 'NONE', #91, 39.37007874015748100 ) ;
#10 = AXIS2_PLACEMENT_3D ( 'NONE', #80, #79, #78 ) ;
#11 = FACE_OUTER_BOUND ( 'NONE', #138, .T. ) ;
#12 = CLOSED_SHELL ( 'NONE', ( #178, #192, #196, #195, #180, #182 ) ) ;
#13 = AXIS2_PLACEMENT_3D ( 'NONE', #92, #93, #94 ) ;
#14 = AXIS2_PLACEMENT_3D ( 'NONE', #84, #83, #82 ) ;
#15 = FACE_OUTER_BOUND ( 'NONE', #136, .T. ) ;
#16 = PRODUCT_RELATED_PRODUCT_CATEGORY ( 'part', '', ( #4 ) ) ;
#17 = APPLICATION_CONTEXT ( 'automotive_design' ) ;
#18 = APPLICATION_CONTEXT ( 'automotive_design' ) ;
#19 =( GEOMETRIC_REPRESENTATION_CONTEXT ( 3 ) GLOBAL_UNCERTAINTY_ASSIGNED_CONTEXT ( ( #147 ) ) GLOBAL_UNIT_ASSIGNED_CONTEXT ( ( #207, #206, #205 ) ) REPRESENTATION_CONTEXT ( 'NONE', 'WORKASPACE' ) );
#20 = APPLICATION_PROTOCOL_DEFINITION ( 'draft international standard', 'automotive_design', 1998, #18 ) ;
#21 = SURFACE_STYLE_USAGE ( .BOTH. , #86 ) ;
#22 =( NAMED_UNIT ( * ) SI_UNIT ( $, .STERADIAN. ) SOLID_ANGLE_UNIT ( ) );
#23 = FILL_AREA_STYLE_COLOUR ( '', #194 ) ;
#24 =( NAMED_UNIT ( * ) PLANE_ANGLE_UNIT ( ) SI_UNIT ( $, .RADIAN. ) );
#25 =( CONVERSION_BASED_UNIT ( 'INCH', #156 ) LENGTH_UNIT ( ) NAMED_UNIT ( #3 ) );
#26 =( LENGTH_UNIT ( ) NAMED_UNIT ( * ) SI_UNIT ( $, .METRE. ) );
#27 = PRESENTATION_STYLE_ASSIGNMENT (( #21 ) ) ;
#28 =( NAMED_UNIT ( * ) SI_UNIT ( $, .STERADIAN. ) SOLID_ANGLE_UNIT ( ) );
#29 =( NAMED_UNIT ( * ) PLANE_ANGLE_UNIT ( ) SI_UNIT ( $, .RADIAN. ) );
#30 =( CONVERSION_BASED_UNIT ( 'INCH', #161 ) LENGTH_UNIT ( ) NAMED_UNIT ( #1 ) );
#31 = VERTEX_POINT ( 'NONE', #109 ) ;
#32 =( LENGTH_UNIT ( ) NAMED_UNIT ( * ) SI_UNIT ( $, .METRE. ) );
#33 = PRESENTATION_STYLE_ASSIGNMENT (( #34 ) ) ;
#34 = SURFACE_STYLE_USAGE ( .BOTH. , #35 ) ;
#35 = SURFACE_SIDE_STYLE ('',( #36 ) ) ;
#36 = SURFACE_STYLE_FILL_AREA ( #37 ) ;
#37 = FILL_AREA_STYLE ('',( #38 ) ) ;
#38 = FILL_AREA_STYLE_COLOUR ( '', #181 ) ;
#39 = DIRECTION ( 'NONE',  ( 1.000000000000000000, 0.0000000000000000000, -0.0000000000000000000 ) ) ;
#40 = DIRECTION ( 'NONE',  ( 0.0000000000000000000, 0.0000000000000000000, 1.000000000000000000 ) ) ;
#41 = CARTESIAN_POINT ( 'NONE',  ( 0.0000000000000000000, 0.5000000000000000000, -0.1000000000000001600 ) ) ;
#42 = PLANE ( 'NONE',  #168 ) ;
#43 = DIRECTION ( 'NONE',  ( 0.0000000000000000000, 0.0000000000000000000, -1.000000000000000000 ) ) ;
#44 = DIRECTION ( 'NONE',  ( 1.000000000000000000, -0.0000000000000000000, 0.0000000000000000000 ) ) ;
#45 = CARTESIAN_POINT ( 'NONE',  ( 0.0000000000000000000, 0.5000000000000000000, 0.0000000000000000000 ) ) ;
#46 = PLANE ( 'NONE',  #170 ) ;
#47 = DIRECTION ( 'NONE',  ( -2.731847993664264000E-015, 0.0000000000000000000, 1.000000000000000000 ) ) ;
#48 = DIRECTION ( 'NONE',  ( -1.000000000000000000, 0.0000000000000000000, -2.731847993664264000E-015 ) ) ;
#49 = CARTESIAN_POINT ( 'NONE',  ( 2.000000000000000400, 0.5000000000000000000, -0.1000000000000001600 ) ) ;
#50 = DIRECTION ( 'NONE',  ( 2.731847993664264000E-015, -0.0000000000000000000, -1.000000000000000000 ) ) ;
#51 = CARTESIAN_POINT ( 'NONE',  ( 2.000000000000000400, 0.5000000000000000000, -0.1000000000000001600 ) ) ;
#52 = LINE ( 'NONE', #51, #174 ) ;
#53 = DIRECTION ( 'NONE',  ( 2.731847993664264000E-015, -0.0000000000000000000, -1.000000000000000000 ) ) ;
#54 = CARTESIAN_POINT ( 'NONE',  ( 2.000000000000000400, 0.0000000000000000000, -0.1000000000000001600 ) ) ;
#55 = LINE ( 'NONE', #54, #172 ) ;
#56 = DIRECTION ( 'NONE',  ( 1.000000000000000000, -0.0000000000000000000, -9.184850993605148400E-017 ) ) ;
#57 = CARTESIAN_POINT ( 'NONE',  ( 2.000000000000000000, 0.5000000000000000000, -1.836970198721029700E-016 ) ) ;
#58 = LINE ( 'NONE', #57, #154 ) ;
#59 = DIRECTION ( 'NONE',  ( -0.0000000000000000000, -1.000000000000000000, -0.0000000000000000000 ) ) ;
#60 = CARTESIAN_POINT ( 'NONE',  ( 0.0000000000000000000, 0.5000000000000000000, -0.1000000000000001600 ) ) ;
#61 = LINE ( 'NONE', #60, #160 ) ;
#62 = DIRECTION ( 'NONE',  ( -1.000000000000000000, -0.0000000000000000000, -0.0000000000000000000 ) ) ;
#63 = CARTESIAN_POINT ( 'NONE',  ( 0.0000000000000000000, 0.0000000000000000000, -0.1000000000000001600 ) ) ;
#64 = LINE ( 'NONE', #63, #151 ) ;
#65 = DIRECTION ( 'NONE',  ( -0.0000000000000000000, -1.000000000000000000, -0.0000000000000000000 ) ) ;
#66 = CARTESIAN_POINT ( 'NONE',  ( 2.000000000000000400, 0.5000000000000000000, -0.1000000000000001600 ) ) ;
#67 = LINE ( 'NONE', #66, #153 ) ;
#68 = DIRECTION ( 'NONE',  ( -0.0000000000000000000, -1.000000000000000000, -0.0000000000000000000 ) ) ;
#69 = CARTESIAN_POINT ( 'NONE',  ( 2.000000000000000000, 0.5000000000000000000, -1.836970198721029700E-016 ) ) ;
#70 = LINE ( 'NONE', #69, #166 ) ;
#71 = DIRECTION ( 'NONE',  ( -0.0000000000000000000, -1.000000000000000000, -0.0000000000000000000 ) ) ;
#72 = CARTESIAN_POINT ( 'NONE',  ( 0.0000000000000000000, 0.5000000000000000000, 0.0000000000000000000 ) ) ;
#73 = LINE ( 'NONE', #72, #157 ) ;
#74 = PLANE ( 'NONE',  #175 ) ;
#75 = DIRECTION ( 'NONE',  ( 1.000000000000000000, -0.0000000000000000000, -9.184850993605148400E-017 ) ) ;
#76 = CARTESIAN_POINT ( 'NONE',  ( 2.000000000000000000, 0.0000000000000000000, -1.836970198721029700E-016 ) ) ;
#77 = LINE ( 'NONE', #76, #165 ) ;
#78 = DIRECTION ( 'NONE',  ( 0.0000000000000000000, 0.0000000000000000000, -1.000000000000000000 ) ) ;
#79 = DIRECTION ( 'NONE',  ( 0.0000000000000000000, -1.000000000000000000, -0.0000000000000000000 ) ) ;
#80 = CARTESIAN_POINT ( 'NONE',  ( 0.0000000000000000000, 0.0000000000000000000, 0.0000000000000000000 ) ) ;
#81 = PLANE ( 'NONE',  #10 ) ;
#82 = DIRECTION ( 'NONE',  ( 0.0000000000000000000, 0.0000000000000000000, -1.000000000000000000 ) ) ;
#83 = DIRECTION ( 'NONE',  ( 0.0000000000000000000, -1.000000000000000000, -0.0000000000000000000 ) ) ;
#84 = CARTESIAN_POINT ( 'NONE',  ( 0.0000000000000000000, 0.5000000000000000000, 0.0000000000000000000 ) ) ;
#85 = PLANE ( 'NONE',  #14 ) ;
#86 = SURFACE_SIDE_STYLE ('',( #87 ) ) ;
#87 = SURFACE_STYLE_FILL_AREA ( #88 ) ;
#88 = FILL_AREA_STYLE ('',( #23 ) ) ;
#89 = LINE ( 'NONE', #90, #9 ) ;
#90 = CARTESIAN_POINT ( 'NONE',  ( 0.0000000000000000000, 0.5000000000000000000, -0.1000000000000001600 ) ) ;
#91 = DIRECTION ( 'NONE',  ( -1.000000000000000000, -0.0000000000000000000, -0.0000000000000000000 ) ) ;
#92 = CARTESIAN_POINT ( 'NONE',  ( 2.000000000000000000, 0.5000000000000000000, -1.836970198721029700E-016 ) ) ;
#93 = DIRECTION ( 'NONE',  ( -9.184850993605148400E-017, 0.0000000000000000000, -1.000000000000000000 ) ) ;
#94 = DIRECTION ( 'NONE',  ( -1.000000000000000000, 0.0000000000000000000, 9.184850993605148400E-017 ) ) ;
#95 = LINE ( 'NONE', #97, #6 ) ;
#96 = DIRECTION ( 'NONE',  ( -0.0000000000000000000, -0.0000000000000000000, 1.000000000000000000 ) ) ;
#97 = CARTESIAN_POINT ( 'NONE',  ( 0.0000000000000000000, 0.0000000000000000000, 0.0000000000000000000 ) ) ;
#98 = CARTESIAN_POINT ( 'NONE',  ( 0.0000000000000000000, 0.5000000000000000000, 0.0000000000000000000 ) ) ;
#99 = DIRECTION ( 'NONE',  ( -0.0000000000000000000, -0.0000000000000000000, 1.000000000000000000 ) ) ;
#100 = PLANE ( 'NONE',  #13 ) ;
#101 = LINE ( 'NONE', #98, #7 ) ;
#102 = CARTESIAN_POINT ( 'NONE',  ( 2.000000000000000000, 0.0000000000000000000, -1.836970198721029700E-016 ) ) ;
#103 = CARTESIAN_POINT ( 'NONE',  ( 0.0000000000000000000, 0.0000000000000000000, 0.0000000000000000000 ) ) ;
#104 = CARTESIAN_POINT ( 'NONE',  ( 0.0000000000000000000, 0.5000000000000000000, -0.1000000000000001600 ) ) ;
#105 = CARTESIAN_POINT ( 'NONE',  ( 0.0000000000000000000, 0.0000000000000000000, -0.1000000000000001600 ) ) ;
#106 = CARTESIAN_POINT ( 'NONE',  ( 2.000000000000000400, 0.5000000000000000000, -0.1000000000000001600 ) ) ;
#107 = CARTESIAN_POINT ( 'NONE',  ( 2.000000000000000400, 0.0000000000000000000, -0.1000000000000001600 ) ) ;
#108 = CARTESIAN_POINT ( 'NONE',  ( 0.0000000000000000000, 0.5000000000000000000, 0.0000000000000000000 ) ) ;
#109 = CARTESIAN_POINT ( 'NONE',  ( 2.000000000000000000, 0.5000000000000000000, -1.836970198721029700E-016 ) ) ;
#110 = ORIENTED_EDGE ( 'NONE', *, *, #184, .T. ) ;
#111 = ORIENTED_EDGE ( 'NONE', *, *, #191, .T. ) ;
#112 = ORIENTED_EDGE ( 'NONE', *, *, #189, .T. ) ;
#113 = ORIENTED_EDGE ( 'NONE', *, *, #188, .T. ) ;
#114 = ORIENTED_EDGE ( 'NONE', *, *, #176, .T. ) ;
#115 = ORIENTED_EDGE ( 'NONE', *, *, #184, .F. ) ;
#116 = ORIENTED_EDGE ( 'NONE', *, *, #177, .T. ) ;
#117 = ORIENTED_EDGE ( 'NONE', *, *, #176, .F. ) ;
#118 = ORIENTED_EDGE ( 'NONE', *, *, #186, .T. ) ;
#119 = ORIENTED_EDGE ( 'NONE', *, *, #188, .F. ) ;
#120 = ORIENTED_EDGE ( 'NONE', *, *, #187, .F. ) ;
#121 = ORIENTED_EDGE ( 'NONE', *, *, #177, .F. ) ;
#122 = ORIENTED_EDGE ( 'NONE', *, *, #183, .F. ) ;
#123 = ORIENTED_EDGE ( 'NONE', *, *, #190, .F. ) ;
#124 = ORIENTED_EDGE ( 'NONE', *, *, #179, .T. ) ;
#125 = ORIENTED_EDGE ( 'NONE', *, *, #179, .F. ) ;
#126 = ORIENTED_EDGE ( 'NONE', *, *, #187, .T. ) ;
#127 = ORIENTED_EDGE ( 'NONE', *, *, #185, .T. ) ;
#128 = ORIENTED_EDGE ( 'NONE', *, *, #186, .F. ) ;
#129 = ORIENTED_EDGE ( 'NONE', *, *, #191, .F. ) ;
#130 = ORIENTED_EDGE ( 'NONE', *, *, #190, .T. ) ;
#131 = ORIENTED_EDGE ( 'NONE', *, *, #185, .F. ) ;
#132 = ORIENTED_EDGE ( 'NONE', *, *, #189, .F. ) ;
#133 = ORIENTED_EDGE ( 'NONE', *, *, #183, .T. ) ;
#134 = EDGE_LOOP ( 'NONE', ( #130, #128, #129, #127 ) ) ;
#135 = EDGE_LOOP ( 'NONE', ( #126, #119, #125, #118 ) ) ;
#136 = EDGE_LOOP ( 'NONE', ( #133, #131, #132, #110 ) ) ;
#137 = EDGE_LOOP ( 'NONE', ( #116, #115, #117, #113 ) ) ;
#138 = EDGE_LOOP ( 'NONE', ( #112, #111, #124, #114 ) ) ;
#139 = EDGE_LOOP ( 'NONE', ( #122, #121, #120, #123 ) ) ;
#140 = VERTEX_POINT ( 'NONE', #108 ) ;
#141 = VERTEX_POINT ( 'NONE', #107 ) ;
#142 = VERTEX_POINT ( 'NONE', #106 ) ;
#143 = VERTEX_POINT ( 'NONE', #105 ) ;
#144 = VERTEX_POINT ( 'NONE', #104 ) ;
#145 = VERTEX_POINT ( 'NONE', #103 ) ;
#146 = VERTEX_POINT ( 'NONE', #102 ) ;
#147 = UNCERTAINTY_MEASURE_WITH_UNIT (LENGTH_MEASURE( 1.000000000000000100E-005 ), #207, 'distance_accuracy_value', 'NONE');
#148 = ADVANCED_BREP_SHAPE_REPRESENTATION ( 'P500-100P', ( #199, #164 ), #211 ) ;
#149 = UNCERTAINTY_MEASURE_WITH_UNIT (LENGTH_MEASURE( 1.000000000000000100E-005 ), #25, 'distance_accuracy_value', 'NONE');
#150 = UNCERTAINTY_MEASURE_WITH_UNIT (LENGTH_MEASURE( 1.000000000000000100E-005 ), #30, 'distance_accuracy_value', 'NONE');
#151 = VECTOR ( 'NONE', #62, 39.37007874015748100 ) ;
#152 = PRESENTATION_LAYER_ASSIGNMENT (  '', '', ( #167 ) ) ;
#153 = VECTOR ( 'NONE', #65, 39.37007874015748100 ) ;
#154 = VECTOR ( 'NONE', #56, 39.37007874015748100 ) ;
#155 = MECHANICAL_DESIGN_GEOMETRIC_PRESENTATION_REPRESENTATION (  '', ( #169 ), #210 ) ;
#156 = LENGTH_MEASURE_WITH_UNIT ( LENGTH_MEASURE( 0.02539999999999999900 ), #26 );
#157 = VECTOR ( 'NONE', #71, 39.37007874015748100 ) ;
#158 = PRODUCT_DEFINITION_FORMATION_WITH_SPECIFIED_SOURCE ( 'ANY', '', #4, .NOT_KNOWN. ) ;
#159 = PRESENTATION_LAYER_ASSIGNMENT (  '', '', ( #169 ) ) ;
#160 = VECTOR ( 'NONE', #59, 39.37007874015748100 ) ;
#161 = LENGTH_MEASURE_WITH_UNIT ( LENGTH_MEASURE( 0.02539999999999999900 ), #32 );
#162 = LENGTH_MEASURE_WITH_UNIT ( LENGTH_MEASURE( 0.02539999999999999900 ), #209 );
#163 = MECHANICAL_DESIGN_GEOMETRIC_PRESENTATION_REPRESENTATION (  '', ( #167 ), #19 ) ;
#164 = AXIS2_PLACEMENT_3D ( 'NONE', #204, #202, #200 ) ;
#165 = VECTOR ( 'NONE', #75, 39.37007874015748100 ) ;
#166 = VECTOR ( 'NONE', #68, 39.37007874015748100 ) ;
#167 = STYLED_ITEM ( 'NONE', ( #27 ), #148 ) ;
#168 = AXIS2_PLACEMENT_3D ( 'NONE', #41, #40, #39 ) ;
#169 = STYLED_ITEM ( 'NONE', ( #33 ), #199 ) ;
#170 = AXIS2_PLACEMENT_3D ( 'NONE', #45, #44, #43 ) ;
#171 = FACE_OUTER_BOUND ( 'NONE', #135, .T. ) ;
#172 = VECTOR ( 'NONE', #53, 39.37007874015748100 ) ;
#173 = FACE_OUTER_BOUND ( 'NONE', #137, .T. ) ;
#174 = VECTOR ( 'NONE', #50, 39.37007874015748100 ) ;
#175 = AXIS2_PLACEMENT_3D ( 'NONE', #49, #48, #47 ) ;
#176 = EDGE_CURVE ( 'NONE', #144, #140, #101, .T. ) ;
#177 = EDGE_CURVE ( 'NONE', #143, #145, #95, .T. ) ;
#178 = ADVANCED_FACE ( 'NONE', ( #15 ), #100, .F. ) ;
#179 = EDGE_CURVE ( 'NONE', #142, #144, #89, .T. ) ;
#180 = ADVANCED_FACE ( 'NONE', ( #11 ), #85, .F. ) ;
#181 = COLOUR_RGB ( '',0.5686274509803921400, 0.5686274509803921400, 0.5882352941176470800 ) ;
#182 = ADVANCED_FACE ( 'NONE', ( #8 ), #81, .T. ) ;
#183 = EDGE_CURVE ( 'NONE', #145, #146, #77, .T. ) ;
#184 = EDGE_CURVE ( 'NONE', #140, #145, #73, .T. ) ;
#185 = EDGE_CURVE ( 'NONE', #31, #146, #70, .T. ) ;
#186 = EDGE_CURVE ( 'NONE', #142, #141, #67, .T. ) ;
#187 = EDGE_CURVE ( 'NONE', #141, #143, #64, .T. ) ;
#188 = EDGE_CURVE ( 'NONE', #144, #143, #61, .T. ) ;
#189 = EDGE_CURVE ( 'NONE', #140, #31, #58, .T. ) ;
#190 = EDGE_CURVE ( 'NONE', #146, #141, #55, .T. ) ;
#191 = EDGE_CURVE ( 'NONE', #31, #142, #52, .T. ) ;
#192 = ADVANCED_FACE ( 'NONE', ( #5 ), #74, .F. ) ;
#193 = PRODUCT_DEFINITION ( 'UNKNOWN', '', #158, #198 ) ;
#194 = COLOUR_RGB ( '',0.5686274509803921400, 0.5686274509803921400, 0.5882352941176470800 ) ;
#195 = ADVANCED_FACE ( 'NONE', ( #173 ), #46, .F. ) ;
#196 = ADVANCED_FACE ( 'NONE', ( #171 ), #42, .F. ) ;
#197 = PRODUCT_DEFINITION_SHAPE ( 'NONE', 'NONE',  #193 ) ;
#198 = PRODUCT_DEFINITION_CONTEXT ( 'detailed design', #18, 'design' ) ;
#199 = MANIFOLD_SOLID_BREP ( 'Boss-Extrude1', #12 ) ;
#200 = DIRECTION ( 'NONE',  ( 1.000000000000000000, 0.0000000000000000000, 0.0000000000000000000 ) ) ;
#201 = APPLICATION_PROTOCOL_DEFINITION ( 'draft international standard', 'automotive_design', 1998, #17 ) ;
#202 = DIRECTION ( 'NONE',  ( 0.0000000000000000000, 0.0000000000000000000, 1.000000000000000000 ) ) ;
#203 = SHAPE_DEFINITION_REPRESENTATION ( #197, #148 ) ;
#204 = CARTESIAN_POINT ( 'NONE',  ( 0.0000000000000000000, 0.0000000000000000000, 0.0000000000000000000 ) ) ;
#205 =( NAMED_UNIT ( * ) SI_UNIT ( $, .STERADIAN. ) SOLID_ANGLE_UNIT ( ) );
#206 =( NAMED_UNIT ( * ) PLANE_ANGLE_UNIT ( ) SI_UNIT ( $, .RADIAN. ) );
#207 =( CONVERSION_BASED_UNIT ( 'INCH', #162 ) LENGTH_UNIT ( ) NAMED_UNIT ( #2 ) );
#208 = PRODUCT_CONTEXT ( 'NONE', #17, 'mechanical' ) ;
#209 =( LENGTH_UNIT ( ) NAMED_UNIT ( * ) SI_UNIT ( $, .METRE. ) );
#210 =( GEOMETRIC_REPRESENTATION_CONTEXT ( 3 ) GLOBAL_UNCERTAINTY_ASSIGNED_CONTEXT ( ( #150 ) ) GLOBAL_UNIT_ASSIGNED_CONTEXT ( ( #30, #29, #28 ) ) REPRESENTATION_CONTEXT ( 'NONE', 'WORKASPACE' ) );
#211 =( GEOMETRIC_REPRESENTATION_CONTEXT ( 3 ) GLOBAL_UNCERTAINTY_ASSIGNED_CONTEXT ( ( #149 ) ) GLOBAL_UNIT_ASSIGNED_CONTEXT ( ( #25, #24, #22 ) ) REPRESENTATION_CONTEXT ( 'NONE', 'WORKASPACE' ) );
ENDSEC;
END-ISO-10303-21;
