ISO-10303-21;
HEADER;
FILE_DESCRIPTION (( 'STEP AP214' ),
    '1' );
FILE_NAME ('P500BB.step',
    '2012-04-20T21:02:02',
    ( '' ),
    ( '' ),
    'SwSTEP 2.0',
    'SolidWorks 2012',
    '' );
FILE_SCHEMA (( 'AUTOMOTIVE_DESIGN' ));
ENDSEC;

DATA;
#1 =( GEOMETRIC_REPRESENTATION_CONTEXT ( 3 ) GLOBAL_UNCERTAINTY_ASSIGNED_CONTEXT ( ( #211 ) ) GLOBAL_UNIT_ASSIGNED_CONTEXT ( ( #90, #91, #92 ) ) REPRESENTATION_CONTEXT ( 'NONE', 'WORKASPACE' ) );
#2 = EDGE_LOOP ( 'NONE', ( #12, #9, #13, #4 ) ) ;
#3 = EDGE_LOOP ( 'NONE', ( #7, #8, #14, #10 ) ) ;
#4 = ORIENTED_EDGE ( 'NONE', *, *, #132, .T. ) ;
#5 = ORIENTED_EDGE ( 'NONE', *, *, #118, .F. ) ;
#6 = EDGE_LOOP ( 'NONE', ( #192, #5, #191, #11 ) ) ;
#7 = ORIENTED_EDGE ( 'NONE', *, *, #115, .F. ) ;
#8 = ORIENTED_EDGE ( 'NONE', *, *, #125, .F. ) ;
#9 = ORIENTED_EDGE ( 'NONE', *, *, #121, .T. ) ;
#10 = ORIENTED_EDGE ( 'NONE', *, *, #120, .F. ) ;
#11 = ORIENTED_EDGE ( 'NONE', *, *, #122, .T. ) ;
#12 = ORIENTED_EDGE ( 'NONE', *, *, #117, .T. ) ;
#13 = ORIENTED_EDGE ( 'NONE', *, *, #124, .T. ) ;
#14 = ORIENTED_EDGE ( 'NONE', *, *, #123, .F. ) ;
#15 = LINE ( 'NONE', #16, #149 ) ;
#16 = CARTESIAN_POINT ( 'NONE',  ( 0.2500000000000000600, 0.0000000000000000000, 2.143131898507868300E-016 ) ) ;
#17 = DIRECTION ( 'NONE',  ( 1.000000000000000000, -0.0000000000000000000, 8.572527594031472200E-016 ) ) ;
#18 = PLANE ( 'NONE',  #161 ) ;
#19 = LINE ( 'NONE', #20, #150 ) ;
#20 = CARTESIAN_POINT ( 'NONE',  ( 0.2500000000000000600, 0.5000000000000000000, 2.143131898507868300E-016 ) ) ;
#21 = DIRECTION ( 'NONE',  ( -0.0000000000000000000, -1.000000000000000000, -0.0000000000000000000 ) ) ;
#22 = LINE ( 'NONE', #23, #151 ) ;
#23 = CARTESIAN_POINT ( 'NONE',  ( 0.2500000000000000600, 0.5000000000000000000, 2.143131898507868300E-016 ) ) ;
#24 = DIRECTION ( 'NONE',  ( 1.000000000000000000, -0.0000000000000000000, 8.572527594031472200E-016 ) ) ;
#25 = LINE ( 'NONE', #26, #152 ) ;
#26 = CARTESIAN_POINT ( 'NONE',  ( 0.0000000000000000000, 0.5000000000000000000, 0.0000000000000000000 ) ) ;
#27 = DIRECTION ( 'NONE',  ( -0.0000000000000000000, -1.000000000000000000, -0.0000000000000000000 ) ) ;
#28 = LINE ( 'NONE', #29, #153 ) ;
#29 = CARTESIAN_POINT ( 'NONE',  ( 0.2500000000000000600, 0.5000000000000000000, -0.2499999999999998100 ) ) ;
#30 = DIRECTION ( 'NONE',  ( -0.0000000000000000000, -1.000000000000000000, -0.0000000000000000000 ) ) ;
#31 = LINE ( 'NONE', #32, #154 ) ;
#32 = CARTESIAN_POINT ( 'NONE',  ( 0.2500000000000000600, 0.0000000000000000000, -0.2499999999999998100 ) ) ;
#33 = DIRECTION ( 'NONE',  ( -0.0000000000000000000, -0.0000000000000000000, -1.000000000000000000 ) ) ;
#34 = LINE ( 'NONE', #35, #155 ) ;
#35 = CARTESIAN_POINT ( 'NONE',  ( 0.2500000000000000600, 0.5000000000000000000, -0.2499999999999998100 ) ) ;
#36 = DIRECTION ( 'NONE',  ( -0.0000000000000000000, -0.0000000000000000000, -1.000000000000000000 ) ) ;
#37 = LINE ( 'NONE', #38, #156 ) ;
#38 = CARTESIAN_POINT ( 'NONE',  ( 0.0000000000000000000, 0.5000000000000000000, -0.2499999999999998100 ) ) ;
#39 = DIRECTION ( 'NONE',  ( -0.0000000000000000000, -1.000000000000000000, -0.0000000000000000000 ) ) ;
#40 = LINE ( 'NONE', #41, #157 ) ;
#41 = CARTESIAN_POINT ( 'NONE',  ( 0.0000000000000000000, 0.0000000000000000000, -0.2499999999999998100 ) ) ;
#42 = DIRECTION ( 'NONE',  ( -1.000000000000000000, -0.0000000000000000000, -0.0000000000000000000 ) ) ;
#43 = LINE ( 'NONE', #44, #158 ) ;
#44 = CARTESIAN_POINT ( 'NONE',  ( 0.0000000000000000000, 0.5000000000000000000, -0.2499999999999998100 ) ) ;
#45 = DIRECTION ( 'NONE',  ( -1.000000000000000000, -0.0000000000000000000, -0.0000000000000000000 ) ) ;
#46 = LINE ( 'NONE', #47, #160 ) ;
#47 = CARTESIAN_POINT ( 'NONE',  ( 0.0000000000000000000, 0.0000000000000000000, 0.0000000000000000000 ) ) ;
#48 = DIRECTION ( 'NONE',  ( -0.0000000000000000000, -0.0000000000000000000, 1.000000000000000000 ) ) ;
#49 = CARTESIAN_POINT ( 'NONE',  ( 0.2500000000000000600, 0.5000000000000000000, 2.143131898507868300E-016 ) ) ;
#50 = DIRECTION ( 'NONE',  ( 8.572527594031472200E-016, 0.0000000000000000000, -1.000000000000000000 ) ) ;
#51 = DIRECTION ( 'NONE',  ( -1.000000000000000000, 0.0000000000000000000, -8.572527594031472200E-016 ) ) ;
#52 = PLANE ( 'NONE',  #163 ) ;
#53 = CARTESIAN_POINT ( 'NONE',  ( 0.2500000000000000600, 0.5000000000000000000, -0.2499999999999998100 ) ) ;
#54 = DIRECTION ( 'NONE',  ( -1.000000000000000000, 0.0000000000000000000, 0.0000000000000000000 ) ) ;
#55 = DIRECTION ( 'NONE',  ( 0.0000000000000000000, 0.0000000000000000000, 1.000000000000000000 ) ) ;
#56 = PLANE ( 'NONE',  #165 ) ;
#57 = CARTESIAN_POINT ( 'NONE',  ( 0.0000000000000000000, 0.5000000000000000000, -0.2499999999999998100 ) ) ;
#58 = DIRECTION ( 'NONE',  ( 0.0000000000000000000, 0.0000000000000000000, 1.000000000000000000 ) ) ;
#59 = DIRECTION ( 'NONE',  ( 1.000000000000000000, 0.0000000000000000000, -0.0000000000000000000 ) ) ;
#60 = PLANE ( 'NONE',  #167 ) ;
#61 = CARTESIAN_POINT ( 'NONE',  ( 0.0000000000000000000, 0.5000000000000000000, 0.0000000000000000000 ) ) ;
#62 = DIRECTION ( 'NONE',  ( 1.000000000000000000, -0.0000000000000000000, 0.0000000000000000000 ) ) ;
#63 = DIRECTION ( 'NONE',  ( 0.0000000000000000000, 0.0000000000000000000, -1.000000000000000000 ) ) ;
#64 = PLANE ( 'NONE',  #169 ) ;
#65 = CARTESIAN_POINT ( 'NONE',  ( 0.0000000000000000000, 0.5000000000000000000, 0.0000000000000000000 ) ) ;
#66 = DIRECTION ( 'NONE',  ( 0.0000000000000000000, -1.000000000000000000, 0.0000000000000000000 ) ) ;
#67 = DIRECTION ( 'NONE',  ( 0.0000000000000000000, 0.0000000000000000000, -1.000000000000000000 ) ) ;
#68 = PLANE ( 'NONE',  #171 ) ;
#69 = CARTESIAN_POINT ( 'NONE',  ( 0.0000000000000000000, 0.0000000000000000000, 0.0000000000000000000 ) ) ;
#70 = DIRECTION ( 'NONE',  ( 0.0000000000000000000, -1.000000000000000000, 0.0000000000000000000 ) ) ;
#71 = DIRECTION ( 'NONE',  ( 0.0000000000000000000, 0.0000000000000000000, -1.000000000000000000 ) ) ;
#72 = LINE ( 'NONE', #73, #173 ) ;
#73 = CARTESIAN_POINT ( 'NONE',  ( 0.0000000000000000000, 0.5000000000000000000, 0.0000000000000000000 ) ) ;
#74 = DIRECTION ( 'NONE',  ( -0.0000000000000000000, -0.0000000000000000000, 1.000000000000000000 ) ) ;
#75 = CARTESIAN_POINT ( 'NONE',  ( 0.0000000000000000000, 0.5000000000000000000, -0.2499999999999998100 ) ) ;
#76 = CARTESIAN_POINT ( 'NONE',  ( 0.0000000000000000000, 0.0000000000000000000, -0.2499999999999998100 ) ) ;
#77 = CARTESIAN_POINT ( 'NONE',  ( 0.2500000000000000600, 0.5000000000000000000, -0.2499999999999998100 ) ) ;
#78 = CARTESIAN_POINT ( 'NONE',  ( 0.2500000000000000600, 0.0000000000000000000, -0.2499999999999998100 ) ) ;
#79 = CARTESIAN_POINT ( 'NONE',  ( 0.0000000000000000000, 0.5000000000000000000, 0.0000000000000000000 ) ) ;
#80 = CARTESIAN_POINT ( 'NONE',  ( 0.2500000000000000600, 0.0000000000000000000, 2.143131898507868300E-016 ) ) ;
#81 = CARTESIAN_POINT ( 'NONE',  ( 0.2500000000000000600, 0.5000000000000000000, 2.143131898507868300E-016 ) ) ;
#82 = CARTESIAN_POINT ( 'NONE',  ( 0.0000000000000000000, 0.0000000000000000000, 0.0000000000000000000 ) ) ;
#83 = FILL_AREA_STYLE_COLOUR ( '', #134 ) ;
#84 = FILL_AREA_STYLE ('',( #83 ) ) ;
#85 = SURFACE_STYLE_FILL_AREA ( #84 ) ;
#86 = SURFACE_SIDE_STYLE ('',( #85 ) ) ;
#87 = SURFACE_STYLE_USAGE ( .BOTH. , #86 ) ;
#88 = PRESENTATION_STYLE_ASSIGNMENT (( #87 ) ) ;
#89 =( LENGTH_UNIT ( ) NAMED_UNIT ( * ) SI_UNIT ( $, .METRE. ) );
#90 =( CONVERSION_BASED_UNIT ( 'INCH', #174 ) LENGTH_UNIT ( ) NAMED_UNIT ( #202 ) );
#91 =( NAMED_UNIT ( * ) PLANE_ANGLE_UNIT ( ) SI_UNIT ( $, .RADIAN. ) );
#92 =( NAMED_UNIT ( * ) SI_UNIT ( $, .STERADIAN. ) SOLID_ANGLE_UNIT ( ) );
#93 =( LENGTH_UNIT ( ) NAMED_UNIT ( * ) SI_UNIT ( $, .METRE. ) );
#94 =( CONVERSION_BASED_UNIT ( 'INCH', #175 ) LENGTH_UNIT ( ) NAMED_UNIT ( #203 ) );
#95 =( NAMED_UNIT ( * ) PLANE_ANGLE_UNIT ( ) SI_UNIT ( $, .RADIAN. ) );
#96 =( NAMED_UNIT ( * ) SI_UNIT ( $, .STERADIAN. ) SOLID_ANGLE_UNIT ( ) );
#97 = APPLICATION_PROTOCOL_DEFINITION ( 'draft international standard', 'automotive_design', 1998, #144 ) ;
#98 = FILL_AREA_STYLE_COLOUR ( '', #114 ) ;
#99 = FILL_AREA_STYLE ('',( #98 ) ) ;
#100 = SURFACE_STYLE_FILL_AREA ( #99 ) ;
#101 = SURFACE_SIDE_STYLE ('',( #100 ) ) ;
#102 = SURFACE_STYLE_USAGE ( .BOTH. , #101 ) ;
#103 = PRESENTATION_STYLE_ASSIGNMENT (( #102 ) ) ;
#104 =( LENGTH_UNIT ( ) NAMED_UNIT ( * ) SI_UNIT ( $, .METRE. ) );
#105 =( CONVERSION_BASED_UNIT ( 'INCH', #138 ) LENGTH_UNIT ( ) NAMED_UNIT ( #204 ) );
#106 =( NAMED_UNIT ( * ) PLANE_ANGLE_UNIT ( ) SI_UNIT ( $, .RADIAN. ) );
#107 =( NAMED_UNIT ( * ) SI_UNIT ( $, .STERADIAN. ) SOLID_ANGLE_UNIT ( ) );
#108 = CARTESIAN_POINT ( 'NONE',  ( 0.0000000000000000000, 0.0000000000000000000, 0.0000000000000000000 ) ) ;
#109 = DIRECTION ( 'NONE',  ( 0.0000000000000000000, 0.0000000000000000000, 1.000000000000000000 ) ) ;
#110 = DIRECTION ( 'NONE',  ( 1.000000000000000000, 0.0000000000000000000, 0.0000000000000000000 ) ) ;
#111 = SHAPE_DEFINITION_REPRESENTATION ( #206, #209 ) ;
#112 = PRODUCT_CONTEXT ( 'NONE', #144, 'mechanical' ) ;
#113 = APPLICATION_PROTOCOL_DEFINITION ( 'draft international standard', 'automotive_design', 1998, #145 ) ;
#114 = COLOUR_RGB ( '',0.5686274509803921400, 0.5686274509803921400, 0.5882352941176470800 ) ;
#115 = EDGE_CURVE ( 'NONE', #200, #198, #15, .T. ) ;
#116 = EDGE_CURVE ( 'NONE', #199, #198, #19, .T. ) ;
#117 = EDGE_CURVE ( 'NONE', #197, #199, #22, .T. ) ;
#118 = EDGE_CURVE ( 'NONE', #197, #200, #25, .T. ) ;
#119 = EDGE_CURVE ( 'NONE', #195, #196, #28, .T. ) ;
#120 = EDGE_CURVE ( 'NONE', #198, #196, #31, .T. ) ;
#121 = EDGE_CURVE ( 'NONE', #199, #195, #34, .T. ) ;
#122 = EDGE_CURVE ( 'NONE', #193, #194, #37, .T. ) ;
#123 = EDGE_CURVE ( 'NONE', #196, #194, #40, .T. ) ;
#124 = EDGE_CURVE ( 'NONE', #195, #193, #43, .T. ) ;
#125 = EDGE_CURVE ( 'NONE', #194, #200, #46, .T. ) ;
#126 = ADVANCED_FACE ( 'NONE', ( #148 ), #18, .F. ) ;
#127 = ADVANCED_FACE ( 'NONE', ( #159 ), #52, .F. ) ;
#128 = ADVANCED_FACE ( 'NONE', ( #162 ), #56, .F. ) ;
#129 = ADVANCED_FACE ( 'NONE', ( #164 ), #60, .F. ) ;
#130 = ADVANCED_FACE ( 'NONE', ( #166 ), #64, .F. ) ;
#131 = ADVANCED_FACE ( 'NONE', ( #168 ), #68, .T. ) ;
#132 = EDGE_CURVE ( 'NONE', #193, #197, #72, .T. ) ;
#133 = PRODUCT_RELATED_PRODUCT_CATEGORY ( 'part', '', ( #201 ) ) ;
#134 = COLOUR_RGB ( '',0.5686274509803921400, 0.5686274509803921400, 0.5882352941176470800 ) ;
#135 = PRODUCT_DEFINITION ( 'UNKNOWN', '', #141, #205 ) ;
#136 = STYLED_ITEM ( 'NONE', ( #103 ), #209 ) ;
#137 = PRESENTATION_LAYER_ASSIGNMENT (  '', '', ( #136 ) ) ;
#138 = LENGTH_MEASURE_WITH_UNIT ( LENGTH_MEASURE( 0.02539999999999999900 ), #104 );
#139 = MECHANICAL_DESIGN_GEOMETRIC_PRESENTATION_REPRESENTATION (  '', ( #136 ), #143 ) ;
#140 = AXIS2_PLACEMENT_3D ( 'NONE', #108, #109, #110 ) ;
#141 = PRODUCT_DEFINITION_FORMATION_WITH_SPECIFIED_SOURCE ( 'ANY', '', #201, .NOT_KNOWN. ) ;
#142 =( GEOMETRIC_REPRESENTATION_CONTEXT ( 3 ) GLOBAL_UNCERTAINTY_ASSIGNED_CONTEXT ( ( #208 ) ) GLOBAL_UNIT_ASSIGNED_CONTEXT ( ( #94, #95, #96 ) ) REPRESENTATION_CONTEXT ( 'NONE', 'WORKASPACE' ) );
#143 =( GEOMETRIC_REPRESENTATION_CONTEXT ( 3 ) GLOBAL_UNCERTAINTY_ASSIGNED_CONTEXT ( ( #210 ) ) GLOBAL_UNIT_ASSIGNED_CONTEXT ( ( #105, #106, #107 ) ) REPRESENTATION_CONTEXT ( 'NONE', 'WORKASPACE' ) );
#144 = APPLICATION_CONTEXT ( 'automotive_design' ) ;
#145 = APPLICATION_CONTEXT ( 'automotive_design' ) ;
#146 = PRESENTATION_LAYER_ASSIGNMENT (  '', '', ( #172 ) ) ;
#147 = CLOSED_SHELL ( 'NONE', ( #126, #127, #128, #129, #130, #131 ) ) ;
#148 = FACE_OUTER_BOUND ( 'NONE', #178, .T. ) ;
#149 = VECTOR ( 'NONE', #17, 39.37007874015748100 ) ;
#150 = VECTOR ( 'NONE', #21, 39.37007874015748100 ) ;
#151 = VECTOR ( 'NONE', #24, 39.37007874015748100 ) ;
#152 = VECTOR ( 'NONE', #27, 39.37007874015748100 ) ;
#153 = VECTOR ( 'NONE', #30, 39.37007874015748100 ) ;
#154 = VECTOR ( 'NONE', #33, 39.37007874015748100 ) ;
#155 = VECTOR ( 'NONE', #36, 39.37007874015748100 ) ;
#156 = VECTOR ( 'NONE', #39, 39.37007874015748100 ) ;
#157 = VECTOR ( 'NONE', #42, 39.37007874015748100 ) ;
#158 = VECTOR ( 'NONE', #45, 39.37007874015748100 ) ;
#159 = FACE_OUTER_BOUND ( 'NONE', #177, .T. ) ;
#160 = VECTOR ( 'NONE', #48, 39.37007874015748100 ) ;
#161 = AXIS2_PLACEMENT_3D ( 'NONE', #49, #50, #51 ) ;
#162 = FACE_OUTER_BOUND ( 'NONE', #176, .T. ) ;
#163 = AXIS2_PLACEMENT_3D ( 'NONE', #53, #54, #55 ) ;
#164 = FACE_OUTER_BOUND ( 'NONE', #6, .T. ) ;
#165 = AXIS2_PLACEMENT_3D ( 'NONE', #57, #58, #59 ) ;
#166 = FACE_OUTER_BOUND ( 'NONE', #2, .T. ) ;
#167 = AXIS2_PLACEMENT_3D ( 'NONE', #61, #62, #63 ) ;
#168 = FACE_OUTER_BOUND ( 'NONE', #3, .T. ) ;
#169 = AXIS2_PLACEMENT_3D ( 'NONE', #65, #66, #67 ) ;
#170 = MECHANICAL_DESIGN_GEOMETRIC_PRESENTATION_REPRESENTATION (  '', ( #172 ), #1 ) ;
#171 = AXIS2_PLACEMENT_3D ( 'NONE', #69, #70, #71 ) ;
#172 = STYLED_ITEM ( 'NONE', ( #88 ), #207 ) ;
#173 = VECTOR ( 'NONE', #74, 39.37007874015748100 ) ;
#174 = LENGTH_MEASURE_WITH_UNIT ( LENGTH_MEASURE( 0.02539999999999999900 ), #89 );
#175 = LENGTH_MEASURE_WITH_UNIT ( LENGTH_MEASURE( 0.02539999999999999900 ), #93 );
#176 = EDGE_LOOP ( 'NONE', ( #187, #189, #188, #190 ) ) ;
#177 = EDGE_LOOP ( 'NONE', ( #183, #185, #184, #186 ) ) ;
#178 = EDGE_LOOP ( 'NONE', ( #179, #181, #180, #182 ) ) ;
#179 = ORIENTED_EDGE ( 'NONE', *, *, #115, .T. ) ;
#180 = ORIENTED_EDGE ( 'NONE', *, *, #117, .F. ) ;
#181 = ORIENTED_EDGE ( 'NONE', *, *, #116, .F. ) ;
#182 = ORIENTED_EDGE ( 'NONE', *, *, #118, .T. ) ;
#183 = ORIENTED_EDGE ( 'NONE', *, *, #120, .T. ) ;
#184 = ORIENTED_EDGE ( 'NONE', *, *, #121, .F. ) ;
#185 = ORIENTED_EDGE ( 'NONE', *, *, #119, .F. ) ;
#186 = ORIENTED_EDGE ( 'NONE', *, *, #116, .T. ) ;
#187 = ORIENTED_EDGE ( 'NONE', *, *, #123, .T. ) ;
#188 = ORIENTED_EDGE ( 'NONE', *, *, #124, .F. ) ;
#189 = ORIENTED_EDGE ( 'NONE', *, *, #122, .F. ) ;
#190 = ORIENTED_EDGE ( 'NONE', *, *, #119, .T. ) ;
#191 = ORIENTED_EDGE ( 'NONE', *, *, #132, .F. ) ;
#192 = ORIENTED_EDGE ( 'NONE', *, *, #125, .T. ) ;
#193 = VERTEX_POINT ( 'NONE', #75 ) ;
#194 = VERTEX_POINT ( 'NONE', #76 ) ;
#195 = VERTEX_POINT ( 'NONE', #77 ) ;
#196 = VERTEX_POINT ( 'NONE', #78 ) ;
#197 = VERTEX_POINT ( 'NONE', #79 ) ;
#198 = VERTEX_POINT ( 'NONE', #80 ) ;
#199 = VERTEX_POINT ( 'NONE', #81 ) ;
#200 = VERTEX_POINT ( 'NONE', #82 ) ;
#201 = PRODUCT ( 'P500BB', 'P500BB', '', ( #112 ) ) ;
#202 = DIMENSIONAL_EXPONENTS ( 1.000000000000000000, 0.0000000000000000000, 0.0000000000000000000, 0.0000000000000000000, 0.0000000000000000000, 0.0000000000000000000, 0.0000000000000000000 ) ;
#203 = DIMENSIONAL_EXPONENTS ( 1.000000000000000000, 0.0000000000000000000, 0.0000000000000000000, 0.0000000000000000000, 0.0000000000000000000, 0.0000000000000000000, 0.0000000000000000000 ) ;
#204 = DIMENSIONAL_EXPONENTS ( 1.000000000000000000, 0.0000000000000000000, 0.0000000000000000000, 0.0000000000000000000, 0.0000000000000000000, 0.0000000000000000000, 0.0000000000000000000 ) ;
#205 = PRODUCT_DEFINITION_CONTEXT ( 'detailed design', #145, 'design' ) ;
#206 = PRODUCT_DEFINITION_SHAPE ( 'NONE', 'NONE',  #135 ) ;
#207 = MANIFOLD_SOLID_BREP ( 'Boss-Extrude1', #147 ) ;
#208 = UNCERTAINTY_MEASURE_WITH_UNIT (LENGTH_MEASURE( 1.000000000000000100E-005 ), #94, 'distance_accuracy_value', 'NONE');
#209 = ADVANCED_BREP_SHAPE_REPRESENTATION ( 'P500BB', ( #207, #140 ), #142 ) ;
#210 = UNCERTAINTY_MEASURE_WITH_UNIT (LENGTH_MEASURE( 1.000000000000000100E-005 ), #105, 'distance_accuracy_value', 'NONE');
#211 = UNCERTAINTY_MEASURE_WITH_UNIT (LENGTH_MEASURE( 1.000000000000000100E-005 ), #90, 'distance_accuracy_value', 'NONE');
ENDSEC;
END-ISO-10303-21;
