ISO-10303-21;
HEADER;
FILE_DESCRIPTION (( 'STEP AP214' ),
    '1' );
FILE_NAME ('P500HPN45.step',
    '2012-04-20T21:02:12',
    ( '' ),
    ( '' ),
    'SwSTEP 2.0',
    'SolidWorks 2012',
    '' );
FILE_SCHEMA (( 'AUTOMOTIVE_DESIGN' ));
ENDSEC;

DATA;
#1 = AXIS2_PLACEMENT_3D ( 'NONE', #78, #77, #76 ) ;
#2 = FACE_OUTER_BOUND ( 'NONE', #174, .T. ) ;
#3 = CLOSED_SHELL ( 'NONE', ( #136, #137, #138, #140, #139, #141 ) ) ;
#4 = FACE_OUTER_BOUND ( 'NONE', #175, .T. ) ;
#5 = VECTOR ( 'NONE', #113, 39.37007874015748100 ) ;
#6 = APPLICATION_PROTOCOL_DEFINITION ( 'draft international standard', 'automotive_design', 1998, #162 ) ;
#7 = SHAPE_DEFINITION_REPRESENTATION ( #192, #194 ) ;
#8 = DIRECTION ( 'NONE',  ( 1.000000000000000000, 0.0000000000000000000, 0.0000000000000000000 ) ) ;
#9 = DIRECTION ( 'NONE',  ( 0.0000000000000000000, 0.0000000000000000000, 1.000000000000000000 ) ) ;
#10 = ORIENTED_EDGE ( 'NONE', *, *, #126, .T. ) ;
#11 = ORIENTED_EDGE ( 'NONE', *, *, #134, .T. ) ;
#12 = ORIENTED_EDGE ( 'NONE', *, *, #129, .F. ) ;
#13 = CARTESIAN_POINT ( 'NONE',  ( 0.0000000000000000000, 0.0000000000000000000, 0.0000000000000000000 ) ) ;
#14 =( NAMED_UNIT ( * ) SI_UNIT ( $, .STERADIAN. ) SOLID_ANGLE_UNIT ( ) );
#15 = ORIENTED_EDGE ( 'NONE', *, *, #127, .T. ) ;
#16 = ORIENTED_EDGE ( 'NONE', *, *, #131, .F. ) ;
#17 =( NAMED_UNIT ( * ) PLANE_ANGLE_UNIT ( ) SI_UNIT ( $, .RADIAN. ) );
#18 =( CONVERSION_BASED_UNIT ( 'INCH', #159 ) LENGTH_UNIT ( ) NAMED_UNIT ( #187 ) );
#19 =( LENGTH_UNIT ( ) NAMED_UNIT ( * ) SI_UNIT ( $, .METRE. ) );
#20 = PRESENTATION_STYLE_ASSIGNMENT (( #21 ) ) ;
#21 = SURFACE_STYLE_USAGE ( .BOTH. , #22 ) ;
#22 = SURFACE_SIDE_STYLE ('',( #23 ) ) ;
#23 = SURFACE_STYLE_FILL_AREA ( #24 ) ;
#24 = FILL_AREA_STYLE ('',( #25 ) ) ;
#25 = FILL_AREA_STYLE_COLOUR ( '', #122 ) ;
#26 = APPLICATION_PROTOCOL_DEFINITION ( 'draft international standard', 'automotive_design', 1998, #161 ) ;
#27 = ORIENTED_EDGE ( 'NONE', *, *, #124, .F. ) ;
#28 = PRODUCT_CONTEXT ( 'NONE', #161, 'mechanical' ) ;
#29 = ORIENTED_EDGE ( 'NONE', *, *, #130, .T. ) ;
#30 = ORIENTED_EDGE ( 'NONE', *, *, #124, .T. ) ;
#31 =( NAMED_UNIT ( * ) SI_UNIT ( $, .STERADIAN. ) SOLID_ANGLE_UNIT ( ) );
#32 =( NAMED_UNIT ( * ) PLANE_ANGLE_UNIT ( ) SI_UNIT ( $, .RADIAN. ) );
#33 =( LENGTH_UNIT ( ) NAMED_UNIT ( * ) SI_UNIT ( $, .METRE. ) );
#34 =( CONVERSION_BASED_UNIT ( 'INCH', #155 ) LENGTH_UNIT ( ) NAMED_UNIT ( #188 ) );
#35 = ORIENTED_EDGE ( 'NONE', *, *, #132, .T. ) ;
#36 = ORIENTED_EDGE ( 'NONE', *, *, #127, .F. ) ;
#37 = ORIENTED_EDGE ( 'NONE', *, *, #125, .T. ) ;
#38 =( NAMED_UNIT ( * ) SI_UNIT ( $, .STERADIAN. ) SOLID_ANGLE_UNIT ( ) );
#39 =( NAMED_UNIT ( * ) PLANE_ANGLE_UNIT ( ) SI_UNIT ( $, .RADIAN. ) );
#40 =( CONVERSION_BASED_UNIT ( 'INCH', #154 ) LENGTH_UNIT ( ) NAMED_UNIT ( #186 ) );
#41 =( LENGTH_UNIT ( ) NAMED_UNIT ( * ) SI_UNIT ( $, .METRE. ) );
#42 = PRESENTATION_STYLE_ASSIGNMENT (( #43 ) ) ;
#43 = SURFACE_STYLE_USAGE ( .BOTH. , #44 ) ;
#44 = SURFACE_SIDE_STYLE ('',( #45 ) ) ;
#45 = SURFACE_STYLE_FILL_AREA ( #46 ) ;
#46 = FILL_AREA_STYLE ('',( #47 ) ) ;
#47 = FILL_AREA_STYLE_COLOUR ( '', #120 ) ;
#48 = CARTESIAN_POINT ( 'NONE',  ( 0.0000000000000000000, 0.0000000000000000000, -2.000000000000000000 ) ) ;
#49 = CARTESIAN_POINT ( 'NONE',  ( 0.9999999999999995600, 0.5000000000000000000, -2.000000000000000000 ) ) ;
#50 = CARTESIAN_POINT ( 'NONE',  ( 0.0000000000000000000, 0.0000000000000000000, 0.0000000000000000000 ) ) ;
#51 = CARTESIAN_POINT ( 'NONE',  ( 0.0000000000000000000, 0.5000000000000000000, -2.000000000000000000 ) ) ;
#52 = CARTESIAN_POINT ( 'NONE',  ( 1.000000000000000000, 0.0000000000000000000, -9.184850993605147200E-017 ) ) ;
#53 = CARTESIAN_POINT ( 'NONE',  ( 1.000000000000000000, 0.5000000000000000000, -9.184850993605147200E-017 ) ) ;
#54 = CARTESIAN_POINT ( 'NONE',  ( 0.9999999999999995600, 0.0000000000000000000, -2.000000000000000000 ) ) ;
#55 = CARTESIAN_POINT ( 'NONE',  ( 0.0000000000000000000, 0.5000000000000000000, 0.0000000000000000000 ) ) ;
#56 = DIRECTION ( 'NONE',  ( 0.0000000000000000000, 0.0000000000000000000, -1.000000000000000000 ) ) ;
#57 = DIRECTION ( 'NONE',  ( 0.0000000000000000000, -1.000000000000000000, -0.0000000000000000000 ) ) ;
#58 = CARTESIAN_POINT ( 'NONE',  ( 0.0000000000000000000, 0.0000000000000000000, 0.0000000000000000000 ) ) ;
#59 = PLANE ( 'NONE',  #153 ) ;
#60 = DIRECTION ( 'NONE',  ( 0.0000000000000000000, 0.0000000000000000000, -1.000000000000000000 ) ) ;
#61 = DIRECTION ( 'NONE',  ( 1.000000000000000000, -0.0000000000000000000, 0.0000000000000000000 ) ) ;
#62 = CARTESIAN_POINT ( 'NONE',  ( 0.0000000000000000000, 0.5000000000000000000, 0.0000000000000000000 ) ) ;
#63 = PLANE ( 'NONE',  #150 ) ;
#64 = DIRECTION ( 'NONE',  ( 0.0000000000000000000, 0.0000000000000000000, -1.000000000000000000 ) ) ;
#65 = DIRECTION ( 'NONE',  ( 0.0000000000000000000, -1.000000000000000000, -0.0000000000000000000 ) ) ;
#66 = CARTESIAN_POINT ( 'NONE',  ( 0.0000000000000000000, 0.5000000000000000000, 0.0000000000000000000 ) ) ;
#67 = PLANE ( 'NONE',  #147 ) ;
#68 = DIRECTION ( 'NONE',  ( 1.000000000000000000, 0.0000000000000000000, -0.0000000000000000000 ) ) ;
#69 = DIRECTION ( 'NONE',  ( 0.0000000000000000000, 0.0000000000000000000, 1.000000000000000000 ) ) ;
#70 = CARTESIAN_POINT ( 'NONE',  ( 0.0000000000000000000, 0.5000000000000000000, -2.000000000000000000 ) ) ;
#71 = PLANE ( 'NONE',  #143 ) ;
#72 = DIRECTION ( 'NONE',  ( 2.048885995248197700E-016, 0.0000000000000000000, 1.000000000000000000 ) ) ;
#73 = DIRECTION ( 'NONE',  ( -1.000000000000000000, 0.0000000000000000000, 2.048885995248197700E-016 ) ) ;
#74 = CARTESIAN_POINT ( 'NONE',  ( 0.9999999999999995600, 0.5000000000000000000, -2.000000000000000000 ) ) ;
#75 = PLANE ( 'NONE',  #144 ) ;
#76 = DIRECTION ( 'NONE',  ( -1.000000000000000000, 0.0000000000000000000, 9.184850993605147200E-017 ) ) ;
#77 = DIRECTION ( 'NONE',  ( -9.184850993605147200E-017, 0.0000000000000000000, -1.000000000000000000 ) ) ;
#78 = CARTESIAN_POINT ( 'NONE',  ( 1.000000000000000000, 0.5000000000000000000, -9.184850993605147200E-017 ) ) ;
#79 = DIRECTION ( 'NONE',  ( -1.000000000000000000, -0.0000000000000000000, -0.0000000000000000000 ) ) ;
#80 = CARTESIAN_POINT ( 'NONE',  ( 0.0000000000000000000, 0.5000000000000000000, -2.000000000000000000 ) ) ;
#81 = LINE ( 'NONE', #80, #142 ) ;
#82 = DIRECTION ( 'NONE',  ( -0.0000000000000000000, -1.000000000000000000, -0.0000000000000000000 ) ) ;
#83 = CARTESIAN_POINT ( 'NONE',  ( 1.000000000000000000, 0.5000000000000000000, -9.184850993605147200E-017 ) ) ;
#84 = LINE ( 'NONE', #83, #200 ) ;
#85 = DIRECTION ( 'NONE',  ( -1.000000000000000000, -0.0000000000000000000, -0.0000000000000000000 ) ) ;
#86 = CARTESIAN_POINT ( 'NONE',  ( 0.0000000000000000000, 0.0000000000000000000, -2.000000000000000000 ) ) ;
#87 = LINE ( 'NONE', #86, #209 ) ;
#88 = DIRECTION ( 'NONE',  ( 1.000000000000000000, -0.0000000000000000000, -9.184850993605147200E-017 ) ) ;
#89 = CARTESIAN_POINT ( 'NONE',  ( 1.000000000000000000, 0.5000000000000000000, -9.184850993605147200E-017 ) ) ;
#90 = LINE ( 'NONE', #89, #208 ) ;
#91 = DIRECTION ( 'NONE',  ( -0.0000000000000000000, -1.000000000000000000, -0.0000000000000000000 ) ) ;
#92 = CARTESIAN_POINT ( 'NONE',  ( 0.9999999999999995600, 0.5000000000000000000, -2.000000000000000000 ) ) ;
#93 = LINE ( 'NONE', #92, #207 ) ;
#94 = DIRECTION ( 'NONE',  ( -0.0000000000000000000, -1.000000000000000000, -0.0000000000000000000 ) ) ;
#95 = CARTESIAN_POINT ( 'NONE',  ( 0.0000000000000000000, 0.5000000000000000000, -2.000000000000000000 ) ) ;
#96 = LINE ( 'NONE', #95, #210 ) ;
#97 = DIRECTION ( 'NONE',  ( -2.048885995248197700E-016, -0.0000000000000000000, -1.000000000000000000 ) ) ;
#98 = CARTESIAN_POINT ( 'NONE',  ( 0.9999999999999995600, 0.5000000000000000000, -2.000000000000000000 ) ) ;
#99 = LINE ( 'NONE', #98, #205 ) ;
#100 = DIRECTION ( 'NONE',  ( 1.000000000000000000, -0.0000000000000000000, -9.184850993605147200E-017 ) ) ;
#101 = CARTESIAN_POINT ( 'NONE',  ( 1.000000000000000000, 0.0000000000000000000, -9.184850993605147200E-017 ) ) ;
#102 = LINE ( 'NONE', #101, #204 ) ;
#103 = DIRECTION ( 'NONE',  ( -0.0000000000000000000, -1.000000000000000000, -0.0000000000000000000 ) ) ;
#104 = CARTESIAN_POINT ( 'NONE',  ( 0.0000000000000000000, 0.5000000000000000000, 0.0000000000000000000 ) ) ;
#105 = LINE ( 'NONE', #104, #203 ) ;
#106 = DIRECTION ( 'NONE',  ( -2.048885995248197700E-016, -0.0000000000000000000, -1.000000000000000000 ) ) ;
#107 = CARTESIAN_POINT ( 'NONE',  ( 0.9999999999999995600, 0.0000000000000000000, -2.000000000000000000 ) ) ;
#108 = LINE ( 'NONE', #107, #202 ) ;
#109 = DIRECTION ( 'NONE',  ( -0.0000000000000000000, -0.0000000000000000000, 1.000000000000000000 ) ) ;
#110 = CARTESIAN_POINT ( 'NONE',  ( 0.0000000000000000000, 0.0000000000000000000, 0.0000000000000000000 ) ) ;
#111 = LINE ( 'NONE', #110, #201 ) ;
#112 = PLANE ( 'NONE',  #1 ) ;
#113 = DIRECTION ( 'NONE',  ( -0.0000000000000000000, -0.0000000000000000000, 1.000000000000000000 ) ) ;
#114 = CARTESIAN_POINT ( 'NONE',  ( 0.0000000000000000000, 0.5000000000000000000, 0.0000000000000000000 ) ) ;
#115 = LINE ( 'NONE', #114, #5 ) ;
#116 = ORIENTED_EDGE ( 'NONE', *, *, #129, .T. ) ;
#117 = ORIENTED_EDGE ( 'NONE', *, *, #126, .F. ) ;
#118 = ORIENTED_EDGE ( 'NONE', *, *, #135, .T. ) ;
#119 = ORIENTED_EDGE ( 'NONE', *, *, #128, .F. ) ;
#120 = COLOUR_RGB ( '',0.5686274509803921400, 0.5686274509803921400, 0.5882352941176470800 ) ;
#121 = PRODUCT_RELATED_PRODUCT_CATEGORY ( 'part', '', ( #189 ) ) ;
#122 = COLOUR_RGB ( '',0.5686274509803921400, 0.5686274509803921400, 0.5882352941176470800 ) ;
#123 = PRODUCT_DEFINITION ( 'UNKNOWN', '', #206, #190 ) ;
#124 = EDGE_CURVE ( 'NONE', #178, #165, #115, .T. ) ;
#125 = EDGE_CURVE ( 'NONE', #182, #180, #111, .T. ) ;
#126 = EDGE_CURVE ( 'NONE', #177, #167, #108, .T. ) ;
#127 = EDGE_CURVE ( 'NONE', #165, #180, #105, .T. ) ;
#128 = EDGE_CURVE ( 'NONE', #180, #177, #102, .T. ) ;
#129 = EDGE_CURVE ( 'NONE', #176, #181, #99, .T. ) ;
#130 = EDGE_CURVE ( 'NONE', #178, #182, #96, .T. ) ;
#131 = EDGE_CURVE ( 'NONE', #181, #167, #93, .T. ) ;
#132 = EDGE_CURVE ( 'NONE', #165, #176, #90, .T. ) ;
#133 = EDGE_CURVE ( 'NONE', #167, #182, #87, .T. ) ;
#134 = EDGE_CURVE ( 'NONE', #176, #177, #84, .T. ) ;
#135 = EDGE_CURVE ( 'NONE', #181, #178, #81, .T. ) ;
#136 = ADVANCED_FACE ( 'NONE', ( #4 ), #112, .F. ) ;
#137 = ADVANCED_FACE ( 'NONE', ( #2 ), #75, .F. ) ;
#138 = ADVANCED_FACE ( 'NONE', ( #211 ), #71, .F. ) ;
#139 = ADVANCED_FACE ( 'NONE', ( #145 ), #67, .F. ) ;
#140 = ADVANCED_FACE ( 'NONE', ( #148 ), #63, .F. ) ;
#141 = ADVANCED_FACE ( 'NONE', ( #151 ), #59, .T. ) ;
#142 = VECTOR ( 'NONE', #79, 39.37007874015748100 ) ;
#143 = AXIS2_PLACEMENT_3D ( 'NONE', #70, #69, #68 ) ;
#144 = AXIS2_PLACEMENT_3D ( 'NONE', #74, #73, #72 ) ;
#145 = FACE_OUTER_BOUND ( 'NONE', #184, .T. ) ;
#146 = STYLED_ITEM ( 'NONE', ( #42 ), #191 ) ;
#147 = AXIS2_PLACEMENT_3D ( 'NONE', #66, #65, #64 ) ;
#148 = FACE_OUTER_BOUND ( 'NONE', #163, .T. ) ;
#149 = PRESENTATION_LAYER_ASSIGNMENT (  '', '', ( #146 ) ) ;
#150 = AXIS2_PLACEMENT_3D ( 'NONE', #62, #61, #60 ) ;
#151 = FACE_OUTER_BOUND ( 'NONE', #185, .T. ) ;
#152 = MECHANICAL_DESIGN_GEOMETRIC_PRESENTATION_REPRESENTATION (  '', ( #146 ), #197 ) ;
#153 = AXIS2_PLACEMENT_3D ( 'NONE', #58, #57, #56 ) ;
#154 = LENGTH_MEASURE_WITH_UNIT ( LENGTH_MEASURE( 0.02539999999999999900 ), #41 );
#155 = LENGTH_MEASURE_WITH_UNIT ( LENGTH_MEASURE( 0.02539999999999999900 ), #33 );
#156 = STYLED_ITEM ( 'NONE', ( #20 ), #194 ) ;
#157 = PRESENTATION_LAYER_ASSIGNMENT (  '', '', ( #156 ) ) ;
#158 = MECHANICAL_DESIGN_GEOMETRIC_PRESENTATION_REPRESENTATION (  '', ( #156 ), #199 ) ;
#159 = LENGTH_MEASURE_WITH_UNIT ( LENGTH_MEASURE( 0.02539999999999999900 ), #19 );
#160 = AXIS2_PLACEMENT_3D ( 'NONE', #13, #9, #8 ) ;
#161 = APPLICATION_CONTEXT ( 'automotive_design' ) ;
#162 = APPLICATION_CONTEXT ( 'automotive_design' ) ;
#163 = EDGE_LOOP ( 'NONE', ( #37, #36, #27, #29 ) ) ;
#164 = ORIENTED_EDGE ( 'NONE', *, *, #134, .F. ) ;
#165 = VERTEX_POINT ( 'NONE', #55 ) ;
#166 = ORIENTED_EDGE ( 'NONE', *, *, #131, .T. ) ;
#167 = VERTEX_POINT ( 'NONE', #54 ) ;
#168 = ORIENTED_EDGE ( 'NONE', *, *, #135, .F. ) ;
#169 = ORIENTED_EDGE ( 'NONE', *, *, #128, .T. ) ;
#170 = ORIENTED_EDGE ( 'NONE', *, *, #132, .F. ) ;
#171 = ORIENTED_EDGE ( 'NONE', *, *, #133, .T. ) ;
#172 = ORIENTED_EDGE ( 'NONE', *, *, #133, .F. ) ;
#173 = ORIENTED_EDGE ( 'NONE', *, *, #125, .F. ) ;
#174 = EDGE_LOOP ( 'NONE', ( #10, #16, #12, #11 ) ) ;
#175 = EDGE_LOOP ( 'NONE', ( #169, #164, #170, #15 ) ) ;
#176 = VERTEX_POINT ( 'NONE', #53 ) ;
#177 = VERTEX_POINT ( 'NONE', #52 ) ;
#178 = VERTEX_POINT ( 'NONE', #51 ) ;
#179 = ORIENTED_EDGE ( 'NONE', *, *, #130, .F. ) ;
#180 = VERTEX_POINT ( 'NONE', #50 ) ;
#181 = VERTEX_POINT ( 'NONE', #49 ) ;
#182 = VERTEX_POINT ( 'NONE', #48 ) ;
#183 = EDGE_LOOP ( 'NONE', ( #171, #179, #168, #166 ) ) ;
#184 = EDGE_LOOP ( 'NONE', ( #35, #116, #118, #30 ) ) ;
#185 = EDGE_LOOP ( 'NONE', ( #119, #173, #172, #117 ) ) ;
#186 = DIMENSIONAL_EXPONENTS ( 1.000000000000000000, 0.0000000000000000000, 0.0000000000000000000, 0.0000000000000000000, 0.0000000000000000000, 0.0000000000000000000, 0.0000000000000000000 ) ;
#187 = DIMENSIONAL_EXPONENTS ( 1.000000000000000000, 0.0000000000000000000, 0.0000000000000000000, 0.0000000000000000000, 0.0000000000000000000, 0.0000000000000000000, 0.0000000000000000000 ) ;
#188 = DIMENSIONAL_EXPONENTS ( 1.000000000000000000, 0.0000000000000000000, 0.0000000000000000000, 0.0000000000000000000, 0.0000000000000000000, 0.0000000000000000000, 0.0000000000000000000 ) ;
#189 = PRODUCT ( 'P500HPN45', 'P500HPN45', '', ( #28 ) ) ;
#190 = PRODUCT_DEFINITION_CONTEXT ( 'detailed design', #162, 'design' ) ;
#191 = MANIFOLD_SOLID_BREP ( 'Boss-Extrude1', #3 ) ;
#192 = PRODUCT_DEFINITION_SHAPE ( 'NONE', 'NONE',  #123 ) ;
#193 = UNCERTAINTY_MEASURE_WITH_UNIT (LENGTH_MEASURE( 1.000000000000000100E-005 ), #18, 'distance_accuracy_value', 'NONE');
#194 = ADVANCED_BREP_SHAPE_REPRESENTATION ( 'P500HPN45', ( #191, #160 ), #198 ) ;
#195 = UNCERTAINTY_MEASURE_WITH_UNIT (LENGTH_MEASURE( 1.000000000000000100E-005 ), #34, 'distance_accuracy_value', 'NONE');
#196 = UNCERTAINTY_MEASURE_WITH_UNIT (LENGTH_MEASURE( 1.000000000000000100E-005 ), #40, 'distance_accuracy_value', 'NONE');
#197 =( GEOMETRIC_REPRESENTATION_CONTEXT ( 3 ) GLOBAL_UNCERTAINTY_ASSIGNED_CONTEXT ( ( #196 ) ) GLOBAL_UNIT_ASSIGNED_CONTEXT ( ( #40, #39, #38 ) ) REPRESENTATION_CONTEXT ( 'NONE', 'WORKASPACE' ) );
#198 =( GEOMETRIC_REPRESENTATION_CONTEXT ( 3 ) GLOBAL_UNCERTAINTY_ASSIGNED_CONTEXT ( ( #195 ) ) GLOBAL_UNIT_ASSIGNED_CONTEXT ( ( #34, #32, #31 ) ) REPRESENTATION_CONTEXT ( 'NONE', 'WORKASPACE' ) );
#199 =( GEOMETRIC_REPRESENTATION_CONTEXT ( 3 ) GLOBAL_UNCERTAINTY_ASSIGNED_CONTEXT ( ( #193 ) ) GLOBAL_UNIT_ASSIGNED_CONTEXT ( ( #18, #17, #14 ) ) REPRESENTATION_CONTEXT ( 'NONE', 'WORKASPACE' ) );
#200 = VECTOR ( 'NONE', #82, 39.37007874015748100 ) ;
#201 = VECTOR ( 'NONE', #109, 39.37007874015748100 ) ;
#202 = VECTOR ( 'NONE', #106, 39.37007874015748100 ) ;
#203 = VECTOR ( 'NONE', #103, 39.37007874015748100 ) ;
#204 = VECTOR ( 'NONE', #100, 39.37007874015748100 ) ;
#205 = VECTOR ( 'NONE', #97, 39.37007874015748100 ) ;
#206 = PRODUCT_DEFINITION_FORMATION_WITH_SPECIFIED_SOURCE ( 'ANY', '', #189, .NOT_KNOWN. ) ;
#207 = VECTOR ( 'NONE', #91, 39.37007874015748100 ) ;
#208 = VECTOR ( 'NONE', #88, 39.37007874015748100 ) ;
#209 = VECTOR ( 'NONE', #85, 39.37007874015748100 ) ;
#210 = VECTOR ( 'NONE', #94, 39.37007874015748100 ) ;
#211 = FACE_OUTER_BOUND ( 'NONE', #183, .T. ) ;
ENDSEC;
END-ISO-10303-21;
