ISO-10303-21;
HEADER;
FILE_DESCRIPTION (( 'STEP AP214' ),
    '1' );
FILE_NAME ('P750HP-BE.step',
    '2012-04-20T21:02:27',
    ( '' ),
    ( '' ),
    'SwSTEP 2.0',
    'SolidWorks 2012',
    '' );
FILE_SCHEMA (( 'AUTOMOTIVE_DESIGN' ));
ENDSEC;

DATA;
#1 = VECTOR ( 'NONE', #116, 39.37007874015748100 ) ;
#2 = FACE_OUTER_BOUND ( 'NONE', #167, .T. ) ;
#3 = FACE_OUTER_BOUND ( 'NONE', #169, .T. ) ;
#4 = CLOSED_SHELL ( 'NONE', ( #137, #139, #133, #134, #135, #136 ) ) ;
#5 = VECTOR ( 'NONE', #97, 39.37007874015748100 ) ;
#6 = ORIENTED_EDGE ( 'NONE', *, *, #123, .F. ) ;
#7 = ORIENTED_EDGE ( 'NONE', *, *, #126, .F. ) ;
#8 = ORIENTED_EDGE ( 'NONE', *, *, #125, .F. ) ;
#9 = ORIENTED_EDGE ( 'NONE', *, *, #127, .T. ) ;
#10 = ORIENTED_EDGE ( 'NONE', *, *, #119, .F. ) ;
#11 = APPLICATION_PROTOCOL_DEFINITION ( 'draft international standard', 'automotive_design', 1998, #158 ) ;
#12 = ORIENTED_EDGE ( 'NONE', *, *, #131, .F. ) ;
#13 = ORIENTED_EDGE ( 'NONE', *, *, #119, .T. ) ;
#14 = ORIENTED_EDGE ( 'NONE', *, *, #129, .F. ) ;
#15 = PRODUCT_CONTEXT ( 'NONE', #157, 'mechanical' ) ;
#16 = VERTEX_POINT ( 'NONE', #28 ) ;
#17 = VERTEX_POINT ( 'NONE', #42 ) ;
#18 = VERTEX_POINT ( 'NONE', #41 ) ;
#19 = SHAPE_DEFINITION_REPRESENTATION ( #197, #210 ) ;
#20 = CARTESIAN_POINT ( 'NONE',  ( 0.0000000000000000000, 0.0000000000000000000, 0.0000000000000000000 ) ) ;
#21 = DIRECTION ( 'NONE',  ( 0.0000000000000000000, 0.0000000000000000000, 1.000000000000000000 ) ) ;
#22 =( NAMED_UNIT ( * ) SI_UNIT ( $, .STERADIAN. ) SOLID_ANGLE_UNIT ( ) );
#23 =( NAMED_UNIT ( * ) PLANE_ANGLE_UNIT ( ) SI_UNIT ( $, .RADIAN. ) );
#24 = DIRECTION ( 'NONE',  ( 1.000000000000000000, 0.0000000000000000000, 0.0000000000000000000 ) ) ;
#25 =( CONVERSION_BASED_UNIT ( 'INCH', #200 ) LENGTH_UNIT ( ) NAMED_UNIT ( #191 ) );
#26 =( LENGTH_UNIT ( ) NAMED_UNIT ( * ) SI_UNIT ( $, .METRE. ) );
#27 = ORIENTED_EDGE ( 'NONE', *, *, #120, .T. ) ;
#28 = CARTESIAN_POINT ( 'NONE',  ( 1.000000000000000000, 0.0000000000000000000, -7.654042494670955400E-017 ) ) ;
#29 = ORIENTED_EDGE ( 'NONE', *, *, #122, .T. ) ;
#30 = VERTEX_POINT ( 'NONE', #39 ) ;
#31 = PRESENTATION_STYLE_ASSIGNMENT (( #32 ) ) ;
#32 = SURFACE_STYLE_USAGE ( .BOTH. , #33 ) ;
#33 = SURFACE_SIDE_STYLE ('',( #35 ) ) ;
#34 = FILL_AREA_STYLE_COLOUR ( '', #124 ) ;
#35 = SURFACE_STYLE_FILL_AREA ( #38 ) ;
#36 = APPLICATION_PROTOCOL_DEFINITION ( 'draft international standard', 'automotive_design', 1998, #157 ) ;
#37 =( NAMED_UNIT ( * ) PLANE_ANGLE_UNIT ( ) SI_UNIT ( $, .RADIAN. ) );
#38 = FILL_AREA_STYLE ('',( #34 ) ) ;
#39 = CARTESIAN_POINT ( 'NONE',  ( 1.000000000000000000, 0.7500000000000001100, -7.654042494670955400E-017 ) ) ;
#40 =( NAMED_UNIT ( * ) SI_UNIT ( $, .STERADIAN. ) SOLID_ANGLE_UNIT ( ) );
#41 = CARTESIAN_POINT ( 'NONE',  ( 0.0000000000000000000, 0.0000000000000000000, 0.0000000000000000000 ) ) ;
#42 = CARTESIAN_POINT ( 'NONE',  ( 0.0000000000000000000, 0.7500000000000001100, 0.0000000000000000000 ) ) ;
#43 =( CONVERSION_BASED_UNIT ( 'INCH', #187 ) LENGTH_UNIT ( ) NAMED_UNIT ( #193 ) );
#44 =( LENGTH_UNIT ( ) NAMED_UNIT ( * ) SI_UNIT ( $, .METRE. ) );
#45 =( NAMED_UNIT ( * ) SI_UNIT ( $, .STERADIAN. ) SOLID_ANGLE_UNIT ( ) );
#46 =( NAMED_UNIT ( * ) PLANE_ANGLE_UNIT ( ) SI_UNIT ( $, .RADIAN. ) );
#47 =( CONVERSION_BASED_UNIT ( 'INCH', #186 ) LENGTH_UNIT ( ) NAMED_UNIT ( #192 ) );
#48 =( LENGTH_UNIT ( ) NAMED_UNIT ( * ) SI_UNIT ( $, .METRE. ) );
#49 = PRESENTATION_STYLE_ASSIGNMENT (( #50 ) ) ;
#50 = SURFACE_STYLE_USAGE ( .BOTH. , #51 ) ;
#51 = SURFACE_SIDE_STYLE ('',( #52 ) ) ;
#52 = SURFACE_STYLE_FILL_AREA ( #53 ) ;
#53 = FILL_AREA_STYLE ('',( #54 ) ) ;
#54 = FILL_AREA_STYLE_COLOUR ( '', #140 ) ;
#55 = CARTESIAN_POINT ( 'NONE',  ( 0.9999999999999996700, 0.0000000000000000000, -1.999999999999999800 ) ) ;
#56 = CARTESIAN_POINT ( 'NONE',  ( 0.0000000000000000000, 0.0000000000000000000, -1.999999999999999800 ) ) ;
#57 = CARTESIAN_POINT ( 'NONE',  ( 0.9999999999999996700, 0.7500000000000001100, -1.999999999999999800 ) ) ;
#58 = CARTESIAN_POINT ( 'NONE',  ( 0.0000000000000000000, 0.7500000000000001100, -1.999999999999999800 ) ) ;
#59 = DIRECTION ( 'NONE',  ( 1.365923996832132100E-016, 0.0000000000000000000, 1.000000000000000000 ) ) ;
#60 = DIRECTION ( 'NONE',  ( -1.000000000000000000, 0.0000000000000000000, 1.365923996832132100E-016 ) ) ;
#61 = CARTESIAN_POINT ( 'NONE',  ( 0.9999999999999996700, 0.7500000000000001100, -1.999999999999999800 ) ) ;
#62 = PLANE ( 'NONE',  #150 ) ;
#63 = DIRECTION ( 'NONE',  ( -1.000000000000000000, 0.0000000000000000000, 7.654042494670956600E-017 ) ) ;
#64 = DIRECTION ( 'NONE',  ( -7.654042494670956600E-017, 0.0000000000000000000, -1.000000000000000000 ) ) ;
#65 = CARTESIAN_POINT ( 'NONE',  ( 1.000000000000000000, 0.7500000000000001100, -7.654042494670955400E-017 ) ) ;
#66 = PLANE ( 'NONE',  #142 ) ;
#67 = DIRECTION ( 'NONE',  ( 0.0000000000000000000, 0.0000000000000000000, -1.000000000000000000 ) ) ;
#68 = DIRECTION ( 'NONE',  ( 0.0000000000000000000, -1.000000000000000000, -0.0000000000000000000 ) ) ;
#69 = CARTESIAN_POINT ( 'NONE',  ( 0.0000000000000000000, 0.0000000000000000000, 0.0000000000000000000 ) ) ;
#70 = PLANE ( 'NONE',  #156 ) ;
#71 = DIRECTION ( 'NONE',  ( 0.0000000000000000000, 0.0000000000000000000, -1.000000000000000000 ) ) ;
#72 = DIRECTION ( 'NONE',  ( 0.0000000000000000000, -1.000000000000000000, -0.0000000000000000000 ) ) ;
#73 = CARTESIAN_POINT ( 'NONE',  ( 0.0000000000000000000, 0.7500000000000001100, 0.0000000000000000000 ) ) ;
#74 = PLANE ( 'NONE',  #154 ) ;
#75 = DIRECTION ( 'NONE',  ( 0.0000000000000000000, 0.0000000000000000000, -1.000000000000000000 ) ) ;
#76 = DIRECTION ( 'NONE',  ( 1.000000000000000000, -0.0000000000000000000, 0.0000000000000000000 ) ) ;
#77 = CARTESIAN_POINT ( 'NONE',  ( 0.0000000000000000000, 0.7500000000000001100, 0.0000000000000000000 ) ) ;
#78 = PLANE ( 'NONE',  #151 ) ;
#79 = DIRECTION ( 'NONE',  ( 1.000000000000000000, 0.0000000000000000000, -0.0000000000000000000 ) ) ;
#80 = DIRECTION ( 'NONE',  ( 0.0000000000000000000, 0.0000000000000000000, 1.000000000000000000 ) ) ;
#81 = CARTESIAN_POINT ( 'NONE',  ( 0.0000000000000000000, 0.7500000000000001100, -1.999999999999999800 ) ) ;
#82 = DIRECTION ( 'NONE',  ( -0.0000000000000000000, -1.000000000000000000, -0.0000000000000000000 ) ) ;
#83 = CARTESIAN_POINT ( 'NONE',  ( 0.0000000000000000000, 0.7500000000000001100, -1.999999999999999800 ) ) ;
#84 = LINE ( 'NONE', #83, #147 ) ;
#85 = DIRECTION ( 'NONE',  ( -1.000000000000000000, -0.0000000000000000000, -0.0000000000000000000 ) ) ;
#86 = CARTESIAN_POINT ( 'NONE',  ( 0.0000000000000000000, 0.0000000000000000000, -1.999999999999999800 ) ) ;
#87 = LINE ( 'NONE', #86, #145 ) ;
#88 = DIRECTION ( 'NONE',  ( -1.000000000000000000, -0.0000000000000000000, -0.0000000000000000000 ) ) ;
#89 = CARTESIAN_POINT ( 'NONE',  ( 0.0000000000000000000, 0.7500000000000001100, -1.999999999999999800 ) ) ;
#90 = LINE ( 'NONE', #89, #144 ) ;
#91 = DIRECTION ( 'NONE',  ( -0.0000000000000000000, -0.0000000000000000000, 1.000000000000000000 ) ) ;
#92 = CARTESIAN_POINT ( 'NONE',  ( 0.0000000000000000000, 0.0000000000000000000, 0.0000000000000000000 ) ) ;
#93 = LINE ( 'NONE', #92, #141 ) ;
#94 = DIRECTION ( 'NONE',  ( -0.0000000000000000000, -0.0000000000000000000, 1.000000000000000000 ) ) ;
#95 = CARTESIAN_POINT ( 'NONE',  ( 0.0000000000000000000, 0.7500000000000001100, 0.0000000000000000000 ) ) ;
#96 = LINE ( 'NONE', #95, #159 ) ;
#97 = DIRECTION ( 'NONE',  ( -0.0000000000000000000, -1.000000000000000000, -0.0000000000000000000 ) ) ;
#98 = CARTESIAN_POINT ( 'NONE',  ( 0.0000000000000000000, 0.7500000000000001100, 0.0000000000000000000 ) ) ;
#99 = LINE ( 'NONE', #98, #5 ) ;
#100 = DIRECTION ( 'NONE',  ( -0.0000000000000000000, -1.000000000000000000, -0.0000000000000000000 ) ) ;
#101 = CARTESIAN_POINT ( 'NONE',  ( 0.9999999999999996700, 0.7500000000000001100, -1.999999999999999800 ) ) ;
#102 = LINE ( 'NONE', #101, #143 ) ;
#103 = DIRECTION ( 'NONE',  ( -1.365923996832131900E-016, -0.0000000000000000000, -1.000000000000000000 ) ) ;
#104 = CARTESIAN_POINT ( 'NONE',  ( 0.9999999999999996700, 0.7500000000000001100, -1.999999999999999800 ) ) ;
#105 = LINE ( 'NONE', #104, #206 ) ;
#106 = DIRECTION ( 'NONE',  ( 1.000000000000000000, -0.0000000000000000000, -7.654042494670955400E-017 ) ) ;
#107 = CARTESIAN_POINT ( 'NONE',  ( 1.000000000000000000, 0.7500000000000001100, -7.654042494670955400E-017 ) ) ;
#108 = LINE ( 'NONE', #107, #207 ) ;
#109 = DIRECTION ( 'NONE',  ( 1.000000000000000000, -0.0000000000000000000, -7.654042494670955400E-017 ) ) ;
#110 = CARTESIAN_POINT ( 'NONE',  ( 1.000000000000000000, 0.0000000000000000000, -7.654042494670955400E-017 ) ) ;
#111 = LINE ( 'NONE', #110, #199 ) ;
#112 = DIRECTION ( 'NONE',  ( -1.365923996832131900E-016, -0.0000000000000000000, -1.000000000000000000 ) ) ;
#113 = CARTESIAN_POINT ( 'NONE',  ( 0.9999999999999996700, 0.0000000000000000000, -1.999999999999999800 ) ) ;
#114 = LINE ( 'NONE', #113, #198 ) ;
#115 = PLANE ( 'NONE',  #148 ) ;
#116 = DIRECTION ( 'NONE',  ( -0.0000000000000000000, -1.000000000000000000, -0.0000000000000000000 ) ) ;
#117 = CARTESIAN_POINT ( 'NONE',  ( 1.000000000000000000, 0.7500000000000001100, -7.654042494670955400E-017 ) ) ;
#118 = LINE ( 'NONE', #117, #1 ) ;
#119 = EDGE_CURVE ( 'NONE', #30, #16, #118, .T. ) ;
#120 = EDGE_CURVE ( 'NONE', #16, #175, #114, .T. ) ;
#121 = PRODUCT_DEFINITION ( 'UNKNOWN', '', #202, #195 ) ;
#122 = EDGE_CURVE ( 'NONE', #18, #16, #111, .T. ) ;
#123 = EDGE_CURVE ( 'NONE', #17, #30, #108, .T. ) ;
#124 = COLOUR_RGB ( '',0.09803921568627450800, 0.09803921568627450800, 0.09803921568627450800 ) ;
#125 = EDGE_CURVE ( 'NONE', #30, #161, #105, .T. ) ;
#126 = EDGE_CURVE ( 'NONE', #161, #175, #102, .T. ) ;
#127 = EDGE_CURVE ( 'NONE', #17, #18, #99, .T. ) ;
#128 = EDGE_CURVE ( 'NONE', #160, #17, #96, .T. ) ;
#129 = EDGE_CURVE ( 'NONE', #173, #18, #93, .T. ) ;
#130 = EDGE_CURVE ( 'NONE', #161, #160, #90, .T. ) ;
#131 = EDGE_CURVE ( 'NONE', #175, #173, #87, .T. ) ;
#132 = EDGE_CURVE ( 'NONE', #160, #173, #84, .T. ) ;
#133 = ADVANCED_FACE ( 'NONE', ( #3 ), #115, .F. ) ;
#134 = ADVANCED_FACE ( 'NONE', ( #149 ), #78, .F. ) ;
#135 = ADVANCED_FACE ( 'NONE', ( #152 ), #74, .F. ) ;
#136 = ADVANCED_FACE ( 'NONE', ( #153 ), #70, .T. ) ;
#137 = ADVANCED_FACE ( 'NONE', ( #155 ), #66, .F. ) ;
#138 = PRODUCT_RELATED_PRODUCT_CATEGORY ( 'part', '', ( #194 ) ) ;
#139 = ADVANCED_FACE ( 'NONE', ( #2 ), #62, .F. ) ;
#140 = COLOUR_RGB ( '',0.09803921568627450800, 0.09803921568627450800, 0.09803921568627450800 ) ;
#141 = VECTOR ( 'NONE', #91, 39.37007874015748100 ) ;
#142 = AXIS2_PLACEMENT_3D ( 'NONE', #65, #64, #63 ) ;
#143 = VECTOR ( 'NONE', #100, 39.37007874015748100 ) ;
#144 = VECTOR ( 'NONE', #88, 39.37007874015748100 ) ;
#145 = VECTOR ( 'NONE', #85, 39.37007874015748100 ) ;
#146 = STYLED_ITEM ( 'NONE', ( #49 ), #196 ) ;
#147 = VECTOR ( 'NONE', #82, 39.37007874015748100 ) ;
#148 = AXIS2_PLACEMENT_3D ( 'NONE', #81, #80, #79 ) ;
#149 = FACE_OUTER_BOUND ( 'NONE', #168, .T. ) ;
#150 = AXIS2_PLACEMENT_3D ( 'NONE', #61, #60, #59 ) ;
#151 = AXIS2_PLACEMENT_3D ( 'NONE', #77, #76, #75 ) ;
#152 = FACE_OUTER_BOUND ( 'NONE', #172, .T. ) ;
#153 = FACE_OUTER_BOUND ( 'NONE', #170, .T. ) ;
#154 = AXIS2_PLACEMENT_3D ( 'NONE', #73, #72, #71 ) ;
#155 = FACE_OUTER_BOUND ( 'NONE', #174, .T. ) ;
#156 = AXIS2_PLACEMENT_3D ( 'NONE', #69, #68, #67 ) ;
#157 = APPLICATION_CONTEXT ( 'automotive_design' ) ;
#158 = APPLICATION_CONTEXT ( 'automotive_design' ) ;
#159 = VECTOR ( 'NONE', #94, 39.37007874015748100 ) ;
#160 = VERTEX_POINT ( 'NONE', #58 ) ;
#161 = VERTEX_POINT ( 'NONE', #57 ) ;
#162 = ORIENTED_EDGE ( 'NONE', *, *, #127, .F. ) ;
#163 = ORIENTED_EDGE ( 'NONE', *, *, #125, .T. ) ;
#164 = ORIENTED_EDGE ( 'NONE', *, *, #132, .T. ) ;
#165 = ORIENTED_EDGE ( 'NONE', *, *, #128, .T. ) ;
#166 = ORIENTED_EDGE ( 'NONE', *, *, #123, .T. ) ;
#167 = EDGE_LOOP ( 'NONE', ( #27, #7, #8, #13 ) ) ;
#168 = EDGE_LOOP ( 'NONE', ( #183, #162, #182, #164 ) ) ;
#169 = EDGE_LOOP ( 'NONE', ( #176, #179, #177, #180 ) ) ;
#170 = EDGE_LOOP ( 'NONE', ( #171, #14, #12, #181 ) ) ;
#171 = ORIENTED_EDGE ( 'NONE', *, *, #122, .F. ) ;
#172 = EDGE_LOOP ( 'NONE', ( #166, #163, #178, #165 ) ) ;
#173 = VERTEX_POINT ( 'NONE', #56 ) ;
#174 = EDGE_LOOP ( 'NONE', ( #29, #10, #6, #9 ) ) ;
#175 = VERTEX_POINT ( 'NONE', #55 ) ;
#176 = ORIENTED_EDGE ( 'NONE', *, *, #131, .T. ) ;
#177 = ORIENTED_EDGE ( 'NONE', *, *, #130, .F. ) ;
#178 = ORIENTED_EDGE ( 'NONE', *, *, #130, .T. ) ;
#179 = ORIENTED_EDGE ( 'NONE', *, *, #132, .F. ) ;
#180 = ORIENTED_EDGE ( 'NONE', *, *, #126, .T. ) ;
#181 = ORIENTED_EDGE ( 'NONE', *, *, #120, .F. ) ;
#182 = ORIENTED_EDGE ( 'NONE', *, *, #128, .F. ) ;
#183 = ORIENTED_EDGE ( 'NONE', *, *, #129, .T. ) ;
#184 = PRESENTATION_LAYER_ASSIGNMENT (  '', '', ( #146 ) ) ;
#185 = MECHANICAL_DESIGN_GEOMETRIC_PRESENTATION_REPRESENTATION (  '', ( #146 ), #203 ) ;
#186 = LENGTH_MEASURE_WITH_UNIT ( LENGTH_MEASURE( 0.02539999999999999900 ), #48 );
#187 = LENGTH_MEASURE_WITH_UNIT ( LENGTH_MEASURE( 0.02539999999999999900 ), #44 );
#188 = STYLED_ITEM ( 'NONE', ( #31 ), #210 ) ;
#189 = PRESENTATION_LAYER_ASSIGNMENT (  '', '', ( #188 ) ) ;
#190 = MECHANICAL_DESIGN_GEOMETRIC_PRESENTATION_REPRESENTATION (  '', ( #188 ), #205 ) ;
#191 = DIMENSIONAL_EXPONENTS ( 1.000000000000000000, 0.0000000000000000000, 0.0000000000000000000, 0.0000000000000000000, 0.0000000000000000000, 0.0000000000000000000, 0.0000000000000000000 ) ;
#192 = DIMENSIONAL_EXPONENTS ( 1.000000000000000000, 0.0000000000000000000, 0.0000000000000000000, 0.0000000000000000000, 0.0000000000000000000, 0.0000000000000000000, 0.0000000000000000000 ) ;
#193 = DIMENSIONAL_EXPONENTS ( 1.000000000000000000, 0.0000000000000000000, 0.0000000000000000000, 0.0000000000000000000, 0.0000000000000000000, 0.0000000000000000000, 0.0000000000000000000 ) ;
#194 = PRODUCT ( 'P750HP-BE', 'P750HP-BE', '', ( #15 ) ) ;
#195 = PRODUCT_DEFINITION_CONTEXT ( 'detailed design', #158, 'design' ) ;
#196 = MANIFOLD_SOLID_BREP ( 'Boss-Extrude1', #4 ) ;
#197 = PRODUCT_DEFINITION_SHAPE ( 'NONE', 'NONE',  #121 ) ;
#198 = VECTOR ( 'NONE', #112, 39.37007874015748100 ) ;
#199 = VECTOR ( 'NONE', #109, 39.37007874015748100 ) ;
#200 = LENGTH_MEASURE_WITH_UNIT ( LENGTH_MEASURE( 0.02539999999999999900 ), #26 );
#201 = AXIS2_PLACEMENT_3D ( 'NONE', #20, #21, #24 ) ;
#202 = PRODUCT_DEFINITION_FORMATION_WITH_SPECIFIED_SOURCE ( 'ANY', '', #194, .NOT_KNOWN. ) ;
#203 =( GEOMETRIC_REPRESENTATION_CONTEXT ( 3 ) GLOBAL_UNCERTAINTY_ASSIGNED_CONTEXT ( ( #211 ) ) GLOBAL_UNIT_ASSIGNED_CONTEXT ( ( #47, #46, #45 ) ) REPRESENTATION_CONTEXT ( 'NONE', 'WORKASPACE' ) );
#204 =( GEOMETRIC_REPRESENTATION_CONTEXT ( 3 ) GLOBAL_UNCERTAINTY_ASSIGNED_CONTEXT ( ( #208 ) ) GLOBAL_UNIT_ASSIGNED_CONTEXT ( ( #43, #37, #40 ) ) REPRESENTATION_CONTEXT ( 'NONE', 'WORKASPACE' ) );
#205 =( GEOMETRIC_REPRESENTATION_CONTEXT ( 3 ) GLOBAL_UNCERTAINTY_ASSIGNED_CONTEXT ( ( #209 ) ) GLOBAL_UNIT_ASSIGNED_CONTEXT ( ( #25, #23, #22 ) ) REPRESENTATION_CONTEXT ( 'NONE', 'WORKASPACE' ) );
#206 = VECTOR ( 'NONE', #103, 39.37007874015748100 ) ;
#207 = VECTOR ( 'NONE', #106, 39.37007874015748100 ) ;
#208 = UNCERTAINTY_MEASURE_WITH_UNIT (LENGTH_MEASURE( 1.000000000000000100E-005 ), #43, 'distance_accuracy_value', 'NONE');
#209 = UNCERTAINTY_MEASURE_WITH_UNIT (LENGTH_MEASURE( 1.000000000000000100E-005 ), #25, 'distance_accuracy_value', 'NONE');
#210 = ADVANCED_BREP_SHAPE_REPRESENTATION ( 'P750HP-BE', ( #196, #201 ), #204 ) ;
#211 = UNCERTAINTY_MEASURE_WITH_UNIT (LENGTH_MEASURE( 1.000000000000000100E-005 ), #47, 'distance_accuracy_value', 'NONE');
ENDSEC;
END-ISO-10303-21;
