ISO-10303-21;
HEADER;
FILE_DESCRIPTION (( 'STEP AP214' ),
    '1' );
FILE_NAME ('P750HP.step',
    '2012-04-20T21:02:29',
    ( '' ),
    ( '' ),
    'SwSTEP 2.0',
    'SolidWorks 2012',
    '' );
FILE_SCHEMA (( 'AUTOMOTIVE_DESIGN' ));
ENDSEC;

DATA;
#1 =( GEOMETRIC_REPRESENTATION_CONTEXT ( 3 ) GLOBAL_UNCERTAINTY_ASSIGNED_CONTEXT ( ( #199 ) ) GLOBAL_UNIT_ASSIGNED_CONTEXT ( ( #29, #25, #24 ) ) REPRESENTATION_CONTEXT ( 'NONE', 'WORKASPACE' ) );
#2 =( CONVERSION_BASED_UNIT ( 'INCH', #189 ) LENGTH_UNIT ( ) NAMED_UNIT ( #194 ) );
#3 =( LENGTH_UNIT ( ) NAMED_UNIT ( * ) SI_UNIT ( $, .METRE. ) );
#4 = CARTESIAN_POINT ( 'NONE',  ( 0.0000000000000000000, 0.0000000000000000000, 0.0000000000000000000 ) ) ;
#5 = DIRECTION ( 'NONE',  ( 0.0000000000000000000, 0.0000000000000000000, 1.000000000000000000 ) ) ;
#6 = PRESENTATION_STYLE_ASSIGNMENT (( #7 ) ) ;
#7 = SURFACE_STYLE_USAGE ( .BOTH. , #8 ) ;
#8 = SURFACE_SIDE_STYLE ('',( #12 ) ) ;
#9 = ORIENTED_EDGE ( 'NONE', *, *, #127, .T. ) ;
#10 = ORIENTED_EDGE ( 'NONE', *, *, #124, .F. ) ;
#11 =( NAMED_UNIT ( * ) PLANE_ANGLE_UNIT ( ) SI_UNIT ( $, .RADIAN. ) );
#12 = SURFACE_STYLE_FILL_AREA ( #13 ) ;
#13 = FILL_AREA_STYLE ('',( #14 ) ) ;
#14 = FILL_AREA_STYLE_COLOUR ( '', #122 ) ;
#15 = APPLICATION_PROTOCOL_DEFINITION ( 'draft international standard', 'automotive_design', 1998, #210 ) ;
#16 =( NAMED_UNIT ( * ) SI_UNIT ( $, .STERADIAN. ) SOLID_ANGLE_UNIT ( ) );
#17 =( NAMED_UNIT ( * ) SI_UNIT ( $, .STERADIAN. ) SOLID_ANGLE_UNIT ( ) );
#18 =( NAMED_UNIT ( * ) PLANE_ANGLE_UNIT ( ) SI_UNIT ( $, .RADIAN. ) );
#19 =( CONVERSION_BASED_UNIT ( 'INCH', #208 ) LENGTH_UNIT ( ) NAMED_UNIT ( #192 ) );
#20 = PRODUCT_CONTEXT ( 'NONE', #210, 'mechanical' ) ;
#21 = SHAPE_DEFINITION_REPRESENTATION ( #197, #202 ) ;
#22 =( LENGTH_UNIT ( ) NAMED_UNIT ( * ) SI_UNIT ( $, .METRE. ) );
#23 = DIRECTION ( 'NONE',  ( 1.000000000000000000, 0.0000000000000000000, 0.0000000000000000000 ) ) ;
#24 =( NAMED_UNIT ( * ) SI_UNIT ( $, .STERADIAN. ) SOLID_ANGLE_UNIT ( ) );
#25 =( NAMED_UNIT ( * ) PLANE_ANGLE_UNIT ( ) SI_UNIT ( $, .RADIAN. ) );
#26 =( LENGTH_UNIT ( ) NAMED_UNIT ( * ) SI_UNIT ( $, .METRE. ) );
#27 = PRESENTATION_STYLE_ASSIGNMENT (( #28 ) ) ;
#28 = SURFACE_STYLE_USAGE ( .BOTH. , #32 ) ;
#29 =( CONVERSION_BASED_UNIT ( 'INCH', #207 ) LENGTH_UNIT ( ) NAMED_UNIT ( #193 ) );
#30 = SURFACE_STYLE_FILL_AREA ( #31 ) ;
#31 = FILL_AREA_STYLE ('',( #34 ) ) ;
#32 = SURFACE_SIDE_STYLE ('',( #30 ) ) ;
#33 = CARTESIAN_POINT ( 'NONE',  ( 0.0000000000000000000, 0.7500000000000001100, -2.000000000000000000 ) ) ;
#34 = FILL_AREA_STYLE_COLOUR ( '', #117 ) ;
#35 = CARTESIAN_POINT ( 'NONE',  ( 0.0000000000000000000, 0.0000000000000000000, 0.0000000000000000000 ) ) ;
#36 = CARTESIAN_POINT ( 'NONE',  ( 0.9999999999999994400, 0.7500000000000001100, -2.000000000000000000 ) ) ;
#37 = CARTESIAN_POINT ( 'NONE',  ( 1.000000000000000000, 0.7500000000000001100, -9.184850993605148400E-017 ) ) ;
#38 = CARTESIAN_POINT ( 'NONE',  ( 1.000000000000000000, 0.0000000000000000000, -9.184850993605148400E-017 ) ) ;
#39 = CARTESIAN_POINT ( 'NONE',  ( 0.9999999999999994400, 0.0000000000000000000, -2.000000000000000000 ) ) ;
#40 = DIRECTION ( 'NONE',  ( -0.0000000000000000000, -0.0000000000000000000, 1.000000000000000000 ) ) ;
#41 = CARTESIAN_POINT ( 'NONE',  ( 0.0000000000000000000, 0.7500000000000001100, 0.0000000000000000000 ) ) ;
#42 = CARTESIAN_POINT ( 'NONE',  ( 0.0000000000000000000, 0.0000000000000000000, -2.000000000000000000 ) ) ;
#43 = DIRECTION ( 'NONE',  ( 1.000000000000000000, 0.0000000000000000000, -0.0000000000000000000 ) ) ;
#44 = CARTESIAN_POINT ( 'NONE',  ( 0.0000000000000000000, 0.7500000000000001100, 0.0000000000000000000 ) ) ;
#45 = LINE ( 'NONE', #44, #204 ) ;
#46 = PLANE ( 'NONE',  #144 ) ;
#47 = CARTESIAN_POINT ( 'NONE',  ( 0.0000000000000000000, 0.7500000000000001100, -2.000000000000000000 ) ) ;
#48 = DIRECTION ( 'NONE',  ( 0.0000000000000000000, 0.0000000000000000000, 1.000000000000000000 ) ) ;
#49 = DIRECTION ( 'NONE',  ( -0.0000000000000000000, -0.0000000000000000000, 1.000000000000000000 ) ) ;
#50 = CARTESIAN_POINT ( 'NONE',  ( 0.0000000000000000000, 0.0000000000000000000, 0.0000000000000000000 ) ) ;
#51 = LINE ( 'NONE', #50, #162 ) ;
#52 = DIRECTION ( 'NONE',  ( -1.000000000000000000, 0.0000000000000000000, 9.184850993605150900E-017 ) ) ;
#53 = DIRECTION ( 'NONE',  ( -9.184850993605150900E-017, 0.0000000000000000000, -1.000000000000000000 ) ) ;
#54 = CARTESIAN_POINT ( 'NONE',  ( 1.000000000000000000, 0.7500000000000001100, -9.184850993605148400E-017 ) ) ;
#55 = PLANE ( 'NONE',  #160 ) ;
#56 = DIRECTION ( 'NONE',  ( 2.731847993664263700E-016, 0.0000000000000000000, 1.000000000000000000 ) ) ;
#57 = DIRECTION ( 'NONE',  ( -1.000000000000000000, 0.0000000000000000000, 2.731847993664263700E-016 ) ) ;
#58 = CARTESIAN_POINT ( 'NONE',  ( 0.9999999999999994400, 0.7500000000000001100, -2.000000000000000000 ) ) ;
#59 = DIRECTION ( 'NONE',  ( -1.000000000000000000, -0.0000000000000000000, -0.0000000000000000000 ) ) ;
#60 = CARTESIAN_POINT ( 'NONE',  ( 0.0000000000000000000, 0.7500000000000001100, -2.000000000000000000 ) ) ;
#61 = LINE ( 'NONE', #60, #156 ) ;
#62 = DIRECTION ( 'NONE',  ( -1.000000000000000000, -0.0000000000000000000, -0.0000000000000000000 ) ) ;
#63 = CARTESIAN_POINT ( 'NONE',  ( 0.0000000000000000000, 0.0000000000000000000, -2.000000000000000000 ) ) ;
#64 = LINE ( 'NONE', #63, #155 ) ;
#65 = DIRECTION ( 'NONE',  ( -0.0000000000000000000, -1.000000000000000000, -0.0000000000000000000 ) ) ;
#66 = CARTESIAN_POINT ( 'NONE',  ( 0.0000000000000000000, 0.7500000000000001100, -2.000000000000000000 ) ) ;
#67 = LINE ( 'NONE', #66, #154 ) ;
#68 = DIRECTION ( 'NONE',  ( -2.731847993664263200E-016, -0.0000000000000000000, -1.000000000000000000 ) ) ;
#69 = CARTESIAN_POINT ( 'NONE',  ( 0.9999999999999994400, 0.7500000000000001100, -2.000000000000000000 ) ) ;
#70 = LINE ( 'NONE', #69, #152 ) ;
#71 = DIRECTION ( 'NONE',  ( -0.0000000000000000000, -1.000000000000000000, -0.0000000000000000000 ) ) ;
#72 = CARTESIAN_POINT ( 'NONE',  ( 0.9999999999999994400, 0.7500000000000001100, -2.000000000000000000 ) ) ;
#73 = LINE ( 'NONE', #72, #151 ) ;
#74 = DIRECTION ( 'NONE',  ( 1.000000000000000000, -0.0000000000000000000, -9.184850993605148400E-017 ) ) ;
#75 = CARTESIAN_POINT ( 'NONE',  ( 1.000000000000000000, 0.0000000000000000000, -9.184850993605148400E-017 ) ) ;
#76 = LINE ( 'NONE', #75, #166 ) ;
#77 = DIRECTION ( 'NONE',  ( 1.000000000000000000, -0.0000000000000000000, -9.184850993605148400E-017 ) ) ;
#78 = CARTESIAN_POINT ( 'NONE',  ( 1.000000000000000000, 0.7500000000000001100, -9.184850993605148400E-017 ) ) ;
#79 = LINE ( 'NONE', #78, #165 ) ;
#80 = DIRECTION ( 'NONE',  ( -0.0000000000000000000, -1.000000000000000000, -0.0000000000000000000 ) ) ;
#81 = CARTESIAN_POINT ( 'NONE',  ( 1.000000000000000000, 0.7500000000000001100, -9.184850993605148400E-017 ) ) ;
#82 = LINE ( 'NONE', #81, #139 ) ;
#83 = DIRECTION ( 'NONE',  ( -0.0000000000000000000, -1.000000000000000000, -0.0000000000000000000 ) ) ;
#84 = CARTESIAN_POINT ( 'NONE',  ( 0.0000000000000000000, 0.7500000000000001100, 0.0000000000000000000 ) ) ;
#85 = LINE ( 'NONE', #84, #140 ) ;
#86 = PLANE ( 'NONE',  #157 ) ;
#87 = DIRECTION ( 'NONE',  ( -2.731847993664263200E-016, -0.0000000000000000000, -1.000000000000000000 ) ) ;
#88 = CARTESIAN_POINT ( 'NONE',  ( 0.9999999999999994400, 0.0000000000000000000, -2.000000000000000000 ) ) ;
#89 = LINE ( 'NONE', #88, #142 ) ;
#90 = DIRECTION ( 'NONE',  ( 0.0000000000000000000, 0.0000000000000000000, -1.000000000000000000 ) ) ;
#91 = DIRECTION ( 'NONE',  ( 1.000000000000000000, -0.0000000000000000000, 0.0000000000000000000 ) ) ;
#92 = CARTESIAN_POINT ( 'NONE',  ( 0.0000000000000000000, 0.7500000000000001100, 0.0000000000000000000 ) ) ;
#93 = PLANE ( 'NONE',  #143 ) ;
#94 = DIRECTION ( 'NONE',  ( 0.0000000000000000000, 0.0000000000000000000, -1.000000000000000000 ) ) ;
#95 = DIRECTION ( 'NONE',  ( 0.0000000000000000000, -1.000000000000000000, -0.0000000000000000000 ) ) ;
#96 = CARTESIAN_POINT ( 'NONE',  ( 0.0000000000000000000, 0.0000000000000000000, 0.0000000000000000000 ) ) ;
#97 = PLANE ( 'NONE',  #145 ) ;
#98 = DIRECTION ( 'NONE',  ( 0.0000000000000000000, 0.0000000000000000000, -1.000000000000000000 ) ) ;
#99 = DIRECTION ( 'NONE',  ( 0.0000000000000000000, -1.000000000000000000, -0.0000000000000000000 ) ) ;
#100 = CARTESIAN_POINT ( 'NONE',  ( 0.0000000000000000000, 0.7500000000000001100, 0.0000000000000000000 ) ) ;
#101 = PLANE ( 'NONE',  #141 ) ;
#102 = ORIENTED_EDGE ( 'NONE', *, *, #130, .F. ) ;
#103 = ORIENTED_EDGE ( 'NONE', *, *, #129, .F. ) ;
#104 = ORIENTED_EDGE ( 'NONE', *, *, #126, .T. ) ;
#105 = ORIENTED_EDGE ( 'NONE', *, *, #125, .T. ) ;
#106 = ORIENTED_EDGE ( 'NONE', *, *, #132, .T. ) ;
#107 = ORIENTED_EDGE ( 'NONE', *, *, #133, .F. ) ;
#108 = ORIENTED_EDGE ( 'NONE', *, *, #128, .T. ) ;
#109 = ORIENTED_EDGE ( 'NONE', *, *, #131, .F. ) ;
#110 = ORIENTED_EDGE ( 'NONE', *, *, #129, .T. ) ;
#111 = ORIENTED_EDGE ( 'NONE', *, *, #138, .F. ) ;
#112 = ORIENTED_EDGE ( 'NONE', *, *, #127, .F. ) ;
#113 = APPLICATION_PROTOCOL_DEFINITION ( 'draft international standard', 'automotive_design', 1998, #211 ) ;
#114 = ORIENTED_EDGE ( 'NONE', *, *, #124, .T. ) ;
#115 = ORIENTED_EDGE ( 'NONE', *, *, #126, .F. ) ;
#116 = ORIENTED_EDGE ( 'NONE', *, *, #133, .T. ) ;
#117 = COLOUR_RGB ( '',0.5686274509803921400, 0.5686274509803921400, 0.5882352941176470800 ) ;
#118 = ADVANCED_FACE ( 'NONE', ( #150 ), #101, .F. ) ;
#119 = ADVANCED_FACE ( 'NONE', ( #148 ), #97, .T. ) ;
#120 = ADVANCED_FACE ( 'NONE', ( #146 ), #93, .F. ) ;
#121 = PRODUCT_DEFINITION ( 'UNKNOWN', '', #191, #198 ) ;
#122 = COLOUR_RGB ( '',0.5686274509803921400, 0.5686274509803921400, 0.5882352941176470800 ) ;
#123 = PRODUCT_RELATED_PRODUCT_CATEGORY ( 'part', '', ( #195 ) ) ;
#124 = EDGE_CURVE ( 'NONE', #177, #178, #89, .T. ) ;
#125 = EDGE_CURVE ( 'NONE', #175, #181, #85, .T. ) ;
#126 = EDGE_CURVE ( 'NONE', #176, #177, #82, .T. ) ;
#127 = EDGE_CURVE ( 'NONE', #175, #176, #79, .T. ) ;
#128 = EDGE_CURVE ( 'NONE', #181, #177, #76, .T. ) ;
#129 = EDGE_CURVE ( 'NONE', #182, #178, #73, .T. ) ;
#130 = EDGE_CURVE ( 'NONE', #176, #182, #70, .T. ) ;
#131 = EDGE_CURVE ( 'NONE', #184, #167, #67, .T. ) ;
#132 = EDGE_CURVE ( 'NONE', #178, #167, #64, .T. ) ;
#133 = EDGE_CURVE ( 'NONE', #182, #184, #61, .T. ) ;
#134 = ADVANCED_FACE ( 'NONE', ( #147 ), #86, .F. ) ;
#135 = ADVANCED_FACE ( 'NONE', ( #158 ), #55, .F. ) ;
#136 = EDGE_CURVE ( 'NONE', #167, #181, #51, .T. ) ;
#137 = ADVANCED_FACE ( 'NONE', ( #159 ), #46, .F. ) ;
#138 = EDGE_CURVE ( 'NONE', #184, #175, #45, .T. ) ;
#139 = VECTOR ( 'NONE', #80, 39.37007874015748100 ) ;
#140 = VECTOR ( 'NONE', #83, 39.37007874015748100 ) ;
#141 = AXIS2_PLACEMENT_3D ( 'NONE', #100, #99, #98 ) ;
#142 = VECTOR ( 'NONE', #87, 39.37007874015748100 ) ;
#143 = AXIS2_PLACEMENT_3D ( 'NONE', #92, #91, #90 ) ;
#144 = AXIS2_PLACEMENT_3D ( 'NONE', #47, #48, #43 ) ;
#145 = AXIS2_PLACEMENT_3D ( 'NONE', #96, #95, #94 ) ;
#146 = FACE_OUTER_BOUND ( 'NONE', #186, .T. ) ;
#147 = FACE_OUTER_BOUND ( 'NONE', #180, .T. ) ;
#148 = FACE_OUTER_BOUND ( 'NONE', #185, .T. ) ;
#149 = CLOSED_SHELL ( 'NONE', ( #135, #134, #137, #120, #118, #119 ) ) ;
#150 = FACE_OUTER_BOUND ( 'NONE', #168, .T. ) ;
#151 = VECTOR ( 'NONE', #71, 39.37007874015748100 ) ;
#152 = VECTOR ( 'NONE', #68, 39.37007874015748100 ) ;
#153 = MECHANICAL_DESIGN_GEOMETRIC_PRESENTATION_REPRESENTATION (  '', ( #209 ), #164 ) ;
#154 = VECTOR ( 'NONE', #65, 39.37007874015748100 ) ;
#155 = VECTOR ( 'NONE', #62, 39.37007874015748100 ) ;
#156 = VECTOR ( 'NONE', #59, 39.37007874015748100 ) ;
#157 = AXIS2_PLACEMENT_3D ( 'NONE', #58, #57, #56 ) ;
#158 = FACE_OUTER_BOUND ( 'NONE', #187, .T. ) ;
#159 = FACE_OUTER_BOUND ( 'NONE', #188, .T. ) ;
#160 = AXIS2_PLACEMENT_3D ( 'NONE', #54, #53, #52 ) ;
#161 = PRESENTATION_LAYER_ASSIGNMENT (  '', '', ( #209 ) ) ;
#162 = VECTOR ( 'NONE', #49, 39.37007874015748100 ) ;
#163 =( GEOMETRIC_REPRESENTATION_CONTEXT ( 3 ) GLOBAL_UNCERTAINTY_ASSIGNED_CONTEXT ( ( #200 ) ) GLOBAL_UNIT_ASSIGNED_CONTEXT ( ( #19, #18, #17 ) ) REPRESENTATION_CONTEXT ( 'NONE', 'WORKASPACE' ) );
#164 =( GEOMETRIC_REPRESENTATION_CONTEXT ( 3 ) GLOBAL_UNCERTAINTY_ASSIGNED_CONTEXT ( ( #201 ) ) GLOBAL_UNIT_ASSIGNED_CONTEXT ( ( #2, #11, #16 ) ) REPRESENTATION_CONTEXT ( 'NONE', 'WORKASPACE' ) );
#165 = VECTOR ( 'NONE', #77, 39.37007874015748100 ) ;
#166 = VECTOR ( 'NONE', #74, 39.37007874015748100 ) ;
#167 = VERTEX_POINT ( 'NONE', #42 ) ;
#168 = EDGE_LOOP ( 'NONE', ( #9, #169, #116, #173 ) ) ;
#169 = ORIENTED_EDGE ( 'NONE', *, *, #130, .T. ) ;
#170 = ORIENTED_EDGE ( 'NONE', *, *, #125, .F. ) ;
#171 = ORIENTED_EDGE ( 'NONE', *, *, #136, .F. ) ;
#172 = ORIENTED_EDGE ( 'NONE', *, *, #128, .F. ) ;
#173 = ORIENTED_EDGE ( 'NONE', *, *, #138, .T. ) ;
#174 = ORIENTED_EDGE ( 'NONE', *, *, #136, .T. ) ;
#175 = VERTEX_POINT ( 'NONE', #41 ) ;
#176 = VERTEX_POINT ( 'NONE', #37 ) ;
#177 = VERTEX_POINT ( 'NONE', #38 ) ;
#178 = VERTEX_POINT ( 'NONE', #39 ) ;
#179 = ORIENTED_EDGE ( 'NONE', *, *, #131, .T. ) ;
#180 = EDGE_LOOP ( 'NONE', ( #114, #103, #102, #104 ) ) ;
#181 = VERTEX_POINT ( 'NONE', #35 ) ;
#182 = VERTEX_POINT ( 'NONE', #36 ) ;
#183 = ORIENTED_EDGE ( 'NONE', *, *, #132, .F. ) ;
#184 = VERTEX_POINT ( 'NONE', #33 ) ;
#185 = EDGE_LOOP ( 'NONE', ( #172, #171, #183, #10 ) ) ;
#186 = EDGE_LOOP ( 'NONE', ( #174, #170, #111, #179 ) ) ;
#187 = EDGE_LOOP ( 'NONE', ( #108, #115, #112, #105 ) ) ;
#188 = EDGE_LOOP ( 'NONE', ( #106, #109, #107, #110 ) ) ;
#189 = LENGTH_MEASURE_WITH_UNIT ( LENGTH_MEASURE( 0.02539999999999999900 ), #3 );
#190 = AXIS2_PLACEMENT_3D ( 'NONE', #4, #5, #23 ) ;
#191 = PRODUCT_DEFINITION_FORMATION_WITH_SPECIFIED_SOURCE ( 'ANY', '', #195, .NOT_KNOWN. ) ;
#192 = DIMENSIONAL_EXPONENTS ( 1.000000000000000000, 0.0000000000000000000, 0.0000000000000000000, 0.0000000000000000000, 0.0000000000000000000, 0.0000000000000000000, 0.0000000000000000000 ) ;
#193 = DIMENSIONAL_EXPONENTS ( 1.000000000000000000, 0.0000000000000000000, 0.0000000000000000000, 0.0000000000000000000, 0.0000000000000000000, 0.0000000000000000000, 0.0000000000000000000 ) ;
#194 = DIMENSIONAL_EXPONENTS ( 1.000000000000000000, 0.0000000000000000000, 0.0000000000000000000, 0.0000000000000000000, 0.0000000000000000000, 0.0000000000000000000, 0.0000000000000000000 ) ;
#195 = PRODUCT ( 'P750HP', 'P750HP', '', ( #20 ) ) ;
#196 = MANIFOLD_SOLID_BREP ( 'Boss-Extrude1', #149 ) ;
#197 = PRODUCT_DEFINITION_SHAPE ( 'NONE', 'NONE',  #121 ) ;
#198 = PRODUCT_DEFINITION_CONTEXT ( 'detailed design', #211, 'design' ) ;
#199 = UNCERTAINTY_MEASURE_WITH_UNIT (LENGTH_MEASURE( 1.000000000000000100E-005 ), #29, 'distance_accuracy_value', 'NONE');
#200 = UNCERTAINTY_MEASURE_WITH_UNIT (LENGTH_MEASURE( 1.000000000000000100E-005 ), #19, 'distance_accuracy_value', 'NONE');
#201 = UNCERTAINTY_MEASURE_WITH_UNIT (LENGTH_MEASURE( 1.000000000000000100E-005 ), #2, 'distance_accuracy_value', 'NONE');
#202 = ADVANCED_BREP_SHAPE_REPRESENTATION ( 'P750HP', ( #196, #190 ), #163 ) ;
#203 = STYLED_ITEM ( 'NONE', ( #27 ), #196 ) ;
#204 = VECTOR ( 'NONE', #40, 39.37007874015748100 ) ;
#205 = PRESENTATION_LAYER_ASSIGNMENT (  '', '', ( #203 ) ) ;
#206 = MECHANICAL_DESIGN_GEOMETRIC_PRESENTATION_REPRESENTATION (  '', ( #203 ), #1 ) ;
#207 = LENGTH_MEASURE_WITH_UNIT ( LENGTH_MEASURE( 0.02539999999999999900 ), #26 );
#208 = LENGTH_MEASURE_WITH_UNIT ( LENGTH_MEASURE( 0.02539999999999999900 ), #22 );
#209 = STYLED_ITEM ( 'NONE', ( #6 ), #202 ) ;
#210 = APPLICATION_CONTEXT ( 'automotive_design' ) ;
#211 = APPLICATION_CONTEXT ( 'automotive_design' ) ;
ENDSEC;
END-ISO-10303-21;
