ISO-10303-21;
HEADER;
FILE_DESCRIPTION (( 'STEP AP214' ),
    '1' );
FILE_NAME ('Q125B.step',
    '2012-04-20T21:02:57',
    ( '' ),
    ( '' ),
    'SwSTEP 2.0',
    'SolidWorks 2012',
    '' );
FILE_SCHEMA (( 'AUTOMOTIVE_DESIGN' ));
ENDSEC;

DATA;
#1 = APPLICATION_CONTEXT ( 'automotive_design' ) ;
#2 = APPLICATION_CONTEXT ( 'automotive_design' ) ;
#3 = DIRECTION ( 'NONE',  ( 1.000000000000000000, -0.0000000000000000000, 0.0000000000000000000 ) ) ;
#4 = DIRECTION ( 'NONE',  ( 0.0000000000000000000, 0.0000000000000000000, -1.000000000000000000 ) ) ;
#5 = PLANE ( 'NONE',  #59 ) ;
#6 = CARTESIAN_POINT ( 'NONE',  ( 0.0000000000000000000, 0.1250000000000000000, 0.0000000000000000000 ) ) ;
#7 = DIRECTION ( 'NONE',  ( 0.0000000000000000000, -1.000000000000000000, 0.0000000000000000000 ) ) ;
#8 = DIRECTION ( 'NONE',  ( 0.0000000000000000000, 0.0000000000000000000, -1.000000000000000000 ) ) ;
#9 = PLANE ( 'NONE',  #52 ) ;
#10 = CARTESIAN_POINT ( 'NONE',  ( 0.0000000000000000000, 0.0000000000000000000, 0.0000000000000000000 ) ) ;
#11 = DIRECTION ( 'NONE',  ( 0.0000000000000000000, -1.000000000000000000, 0.0000000000000000000 ) ) ;
#12 = DIRECTION ( 'NONE',  ( 0.0000000000000000000, 0.0000000000000000000, -1.000000000000000000 ) ) ;
#13 = FILL_AREA_STYLE_COLOUR ( '', #28 ) ;
#14 = FILL_AREA_STYLE ('',( #13 ) ) ;
#15 = SURFACE_STYLE_FILL_AREA ( #14 ) ;
#16 = SURFACE_SIDE_STYLE ('',( #15 ) ) ;
#17 = SURFACE_STYLE_USAGE ( .BOTH. , #16 ) ;
#18 = PRESENTATION_STYLE_ASSIGNMENT (( #17 ) ) ;
#19 =( LENGTH_UNIT ( ) NAMED_UNIT ( * ) SI_UNIT ( $, .METRE. ) );
#20 =( CONVERSION_BASED_UNIT ( 'INCH', #50 ) LENGTH_UNIT ( ) NAMED_UNIT ( #122 ) );
#21 =( NAMED_UNIT ( * ) PLANE_ANGLE_UNIT ( ) SI_UNIT ( $, .RADIAN. ) );
#22 =( NAMED_UNIT ( * ) SI_UNIT ( $, .STERADIAN. ) SOLID_ANGLE_UNIT ( ) );
#23 = CARTESIAN_POINT ( 'NONE',  ( 0.0000000000000000000, 0.0000000000000000000, 0.0000000000000000000 ) ) ;
#24 = CARTESIAN_POINT ( 'NONE',  ( 0.2500000000000000600, 0.0000000000000000000, 2.143131898507867800E-016 ) ) ;
#25 = CARTESIAN_POINT ( 'NONE',  ( 0.2500000000000000600, 0.1250000000000000000, 2.143131898507867800E-016 ) ) ;
#26 = CARTESIAN_POINT ( 'NONE',  ( 0.0000000000000000000, 0.1250000000000000000, 0.0000000000000000000 ) ) ;
#27 = CARTESIAN_POINT ( 'NONE',  ( 0.2500000000000000600, 0.0000000000000000000, -0.2499999999999998100 ) ) ;
#28 = COLOUR_RGB ( '',0.5686274509803921400, 0.5686274509803921400, 0.5882352941176470800 ) ;
#29 = COLOUR_RGB ( '',0.5686274509803921400, 0.5686274509803921400, 0.5882352941176470800 ) ;
#30 = PRODUCT_RELATED_PRODUCT_CATEGORY ( 'part', '', ( #119 ) ) ;
#31 = PRODUCT_DEFINITION ( 'UNKNOWN', '', #82, #161 ) ;
#32 = EDGE_CURVE ( 'NONE', #203, #197, #145, .T. ) ;
#33 = EDGE_CURVE ( 'NONE', #204, #200, #149, .T. ) ;
#34 = EDGE_CURVE ( 'NONE', #200, #197, #152, .T. ) ;
#35 = EDGE_CURVE ( 'NONE', #199, #202, #155, .T. ) ;
#36 = EDGE_CURVE ( 'NONE', #204, #203, #158, .T. ) ;
#37 = EDGE_CURVE ( 'NONE', #201, #203, #85, .T. ) ;
#38 = EDGE_CURVE ( 'NONE', #197, #198, #88, .T. ) ;
#39 = EDGE_CURVE ( 'NONE', #200, #199, #91, .T. ) ;
#40 = EDGE_CURVE ( 'NONE', #202, #201, #94, .T. ) ;
#41 = EDGE_CURVE ( 'NONE', #198, #201, #97, .T. ) ;
#42 = EDGE_CURVE ( 'NONE', #199, #198, #100, .T. ) ;
#43 = EDGE_CURVE ( 'NONE', #202, #204, #103, .T. ) ;
#44 = ADVANCED_FACE ( 'NONE', ( #64 ), #148, .F. ) ;
#45 = ADVANCED_FACE ( 'NONE', ( #188 ), #109, .F. ) ;
#46 = ADVANCED_FACE ( 'NONE', ( #189 ), #113, .F. ) ;
#47 = ADVANCED_FACE ( 'NONE', ( #190 ), #117, .F. ) ;
#48 = ADVANCED_FACE ( 'NONE', ( #61 ), #5, .F. ) ;
#49 = ADVANCED_FACE ( 'NONE', ( #58 ), #9, .T. ) ;
#50 = LENGTH_MEASURE_WITH_UNIT ( LENGTH_MEASURE( 0.02539999999999999900 ), #19 );
#51 = STYLED_ITEM ( 'NONE', ( #18 ), #160 ) ;
#52 = AXIS2_PLACEMENT_3D ( 'NONE', #10, #11, #12 ) ;
#53 =( GEOMETRIC_REPRESENTATION_CONTEXT ( 3 ) GLOBAL_UNCERTAINTY_ASSIGNED_CONTEXT ( ( #209 ) ) GLOBAL_UNIT_ASSIGNED_CONTEXT ( ( #20, #21, #22 ) ) REPRESENTATION_CONTEXT ( 'NONE', 'WORKASPACE' ) );
#54 =( GEOMETRIC_REPRESENTATION_CONTEXT ( 3 ) GLOBAL_UNCERTAINTY_ASSIGNED_CONTEXT ( ( #211 ) ) GLOBAL_UNIT_ASSIGNED_CONTEXT ( ( #172, #173, #174 ) ) REPRESENTATION_CONTEXT ( 'NONE', 'WORKASPACE' ) );
#55 =( GEOMETRIC_REPRESENTATION_CONTEXT ( 3 ) GLOBAL_UNCERTAINTY_ASSIGNED_CONTEXT ( ( #210 ) ) GLOBAL_UNIT_ASSIGNED_CONTEXT ( ( #183, #184, #70 ) ) REPRESENTATION_CONTEXT ( 'NONE', 'WORKASPACE' ) );
#56 = MECHANICAL_DESIGN_GEOMETRIC_PRESENTATION_REPRESENTATION (  '', ( #51 ), #53 ) ;
#57 = AXIS2_PLACEMENT_3D ( 'NONE', #118, #3, #4 ) ;
#58 = FACE_OUTER_BOUND ( 'NONE', #135, .T. ) ;
#59 = AXIS2_PLACEMENT_3D ( 'NONE', #6, #7, #8 ) ;
#60 = PRESENTATION_LAYER_ASSIGNMENT (  '', '', ( #51 ) ) ;
#61 = FACE_OUTER_BOUND ( 'NONE', #196, .T. ) ;
#62 = LENGTH_MEASURE_WITH_UNIT ( LENGTH_MEASURE( 0.02539999999999999900 ), #171 );
#63 = CLOSED_SHELL ( 'NONE', ( #44, #45, #46, #47, #48, #49 ) ) ;
#64 = FACE_OUTER_BOUND ( 'NONE', #194, .T. ) ;
#65 = VECTOR ( 'NONE', #147, 39.37007874015748100 ) ;
#66 = VECTOR ( 'NONE', #151, 39.37007874015748100 ) ;
#67 = VECTOR ( 'NONE', #154, 39.37007874015748100 ) ;
#68 = VECTOR ( 'NONE', #157, 39.37007874015748100 ) ;
#69 = VECTOR ( 'NONE', #84, 39.37007874015748100 ) ;
#70 =( NAMED_UNIT ( * ) SI_UNIT ( $, .STERADIAN. ) SOLID_ANGLE_UNIT ( ) );
#71 = CARTESIAN_POINT ( 'NONE',  ( 0.0000000000000000000, 0.0000000000000000000, 0.0000000000000000000 ) ) ;
#72 = DIRECTION ( 'NONE',  ( 0.0000000000000000000, 0.0000000000000000000, 1.000000000000000000 ) ) ;
#73 = DIRECTION ( 'NONE',  ( 1.000000000000000000, 0.0000000000000000000, 0.0000000000000000000 ) ) ;
#74 = SHAPE_DEFINITION_REPRESENTATION ( #159, #208 ) ;
#75 = APPLICATION_PROTOCOL_DEFINITION ( 'draft international standard', 'automotive_design', 1998, #1 ) ;
#76 = PRODUCT_CONTEXT ( 'NONE', #1, 'mechanical' ) ;
#77 = STYLED_ITEM ( 'NONE', ( #181 ), #208 ) ;
#78 = PRESENTATION_LAYER_ASSIGNMENT (  '', '', ( #77 ) ) ;
#79 = MECHANICAL_DESIGN_GEOMETRIC_PRESENTATION_REPRESENTATION (  '', ( #77 ), #55 ) ;
#80 = LENGTH_MEASURE_WITH_UNIT ( LENGTH_MEASURE( 0.02539999999999999900 ), #182 );
#81 = AXIS2_PLACEMENT_3D ( 'NONE', #71, #72, #73 ) ;
#82 = PRODUCT_DEFINITION_FORMATION_WITH_SPECIFIED_SOURCE ( 'ANY', '', #119, .NOT_KNOWN. ) ;
#83 = CARTESIAN_POINT ( 'NONE',  ( 0.0000000000000000000, 0.1250000000000000000, -0.2499999999999998100 ) ) ;
#84 = DIRECTION ( 'NONE',  ( -0.0000000000000000000, -1.000000000000000000, -0.0000000000000000000 ) ) ;
#85 = LINE ( 'NONE', #86, #164 ) ;
#86 = CARTESIAN_POINT ( 'NONE',  ( 0.0000000000000000000, 0.0000000000000000000, -0.2499999999999998100 ) ) ;
#87 = DIRECTION ( 'NONE',  ( -1.000000000000000000, -0.0000000000000000000, -0.0000000000000000000 ) ) ;
#88 = LINE ( 'NONE', #89, #165 ) ;
#89 = CARTESIAN_POINT ( 'NONE',  ( 0.2500000000000000600, 0.0000000000000000000, 2.143131898507867800E-016 ) ) ;
#90 = DIRECTION ( 'NONE',  ( 1.000000000000000000, -0.0000000000000000000, 8.572527594031468300E-016 ) ) ;
#91 = LINE ( 'NONE', #92, #166 ) ;
#92 = CARTESIAN_POINT ( 'NONE',  ( 0.2500000000000000600, 0.1250000000000000000, 2.143131898507867800E-016 ) ) ;
#93 = DIRECTION ( 'NONE',  ( 1.000000000000000000, -0.0000000000000000000, 8.572527594031468300E-016 ) ) ;
#94 = LINE ( 'NONE', #95, #167 ) ;
#95 = CARTESIAN_POINT ( 'NONE',  ( 0.2500000000000000600, 0.1250000000000000000, -0.2499999999999998100 ) ) ;
#96 = DIRECTION ( 'NONE',  ( -0.0000000000000000000, -1.000000000000000000, -0.0000000000000000000 ) ) ;
#97 = LINE ( 'NONE', #98, #162 ) ;
#98 = CARTESIAN_POINT ( 'NONE',  ( 0.2500000000000000600, 0.0000000000000000000, -0.2499999999999998100 ) ) ;
#99 = DIRECTION ( 'NONE',  ( -0.0000000000000000000, -0.0000000000000000000, -1.000000000000000000 ) ) ;
#100 = LINE ( 'NONE', #101, #185 ) ;
#101 = CARTESIAN_POINT ( 'NONE',  ( 0.2500000000000000600, 0.1250000000000000000, 2.143131898507867800E-016 ) ) ;
#102 = DIRECTION ( 'NONE',  ( -0.0000000000000000000, -1.000000000000000000, -0.0000000000000000000 ) ) ;
#103 = LINE ( 'NONE', #104, #186 ) ;
#104 = CARTESIAN_POINT ( 'NONE',  ( 0.0000000000000000000, 0.1250000000000000000, -0.2499999999999998100 ) ) ;
#105 = DIRECTION ( 'NONE',  ( -1.000000000000000000, -0.0000000000000000000, -0.0000000000000000000 ) ) ;
#106 = CARTESIAN_POINT ( 'NONE',  ( 0.2500000000000000600, 0.1250000000000000000, 2.143131898507867800E-016 ) ) ;
#107 = DIRECTION ( 'NONE',  ( 8.572527594031468300E-016, 0.0000000000000000000, -1.000000000000000000 ) ) ;
#108 = DIRECTION ( 'NONE',  ( -1.000000000000000000, 0.0000000000000000000, -8.572527594031468300E-016 ) ) ;
#109 = PLANE ( 'NONE',  #163 ) ;
#110 = CARTESIAN_POINT ( 'NONE',  ( 0.2500000000000000600, 0.1250000000000000000, -0.2499999999999998100 ) ) ;
#111 = DIRECTION ( 'NONE',  ( -1.000000000000000000, 0.0000000000000000000, 0.0000000000000000000 ) ) ;
#112 = DIRECTION ( 'NONE',  ( 0.0000000000000000000, 0.0000000000000000000, 1.000000000000000000 ) ) ;
#113 = PLANE ( 'NONE',  #191 ) ;
#114 = CARTESIAN_POINT ( 'NONE',  ( 0.0000000000000000000, 0.1250000000000000000, -0.2499999999999998100 ) ) ;
#115 = DIRECTION ( 'NONE',  ( 0.0000000000000000000, 0.0000000000000000000, 1.000000000000000000 ) ) ;
#116 = DIRECTION ( 'NONE',  ( 1.000000000000000000, 0.0000000000000000000, -0.0000000000000000000 ) ) ;
#117 = PLANE ( 'NONE',  #57 ) ;
#118 = CARTESIAN_POINT ( 'NONE',  ( 0.0000000000000000000, 0.1250000000000000000, 0.0000000000000000000 ) ) ;
#119 = PRODUCT ( 'Q125B', 'Q125B', '', ( #76 ) ) ;
#120 = DIMENSIONAL_EXPONENTS ( 1.000000000000000000, 0.0000000000000000000, 0.0000000000000000000, 0.0000000000000000000, 0.0000000000000000000, 0.0000000000000000000, 0.0000000000000000000 ) ;
#121 = DIMENSIONAL_EXPONENTS ( 1.000000000000000000, 0.0000000000000000000, 0.0000000000000000000, 0.0000000000000000000, 0.0000000000000000000, 0.0000000000000000000, 0.0000000000000000000 ) ;
#122 = DIMENSIONAL_EXPONENTS ( 1.000000000000000000, 0.0000000000000000000, 0.0000000000000000000, 0.0000000000000000000, 0.0000000000000000000, 0.0000000000000000000, 0.0000000000000000000 ) ;
#123 = ORIENTED_EDGE ( 'NONE', *, *, #38, .T. ) ;
#124 = ORIENTED_EDGE ( 'NONE', *, *, #40, .T. ) ;
#125 = ORIENTED_EDGE ( 'NONE', *, *, #36, .F. ) ;
#126 = ORIENTED_EDGE ( 'NONE', *, *, #41, .T. ) ;
#127 = ORIENTED_EDGE ( 'NONE', *, *, #34, .T. ) ;
#128 = ORIENTED_EDGE ( 'NONE', *, *, #43, .F. ) ;
#129 = ORIENTED_EDGE ( 'NONE', *, *, #39, .F. ) ;
#130 = ORIENTED_EDGE ( 'NONE', *, *, #37, .T. ) ;
#131 = ORIENTED_EDGE ( 'NONE', *, *, #42, .F. ) ;
#132 = ORIENTED_EDGE ( 'NONE', *, *, #42, .T. ) ;
#133 = ORIENTED_EDGE ( 'NONE', *, *, #40, .F. ) ;
#134 = ORIENTED_EDGE ( 'NONE', *, *, #35, .F. ) ;
#135 = EDGE_LOOP ( 'NONE', ( #143, #206, #205, #140 ) ) ;
#136 = ORIENTED_EDGE ( 'NONE', *, *, #34, .F. ) ;
#137 = ORIENTED_EDGE ( 'NONE', *, *, #32, .T. ) ;
#138 = ORIENTED_EDGE ( 'NONE', *, *, #33, .T. ) ;
#139 = ORIENTED_EDGE ( 'NONE', *, *, #43, .T. ) ;
#140 = ORIENTED_EDGE ( 'NONE', *, *, #41, .F. ) ;
#141 = ORIENTED_EDGE ( 'NONE', *, *, #39, .T. ) ;
#142 = ORIENTED_EDGE ( 'NONE', *, *, #35, .T. ) ;
#143 = ORIENTED_EDGE ( 'NONE', *, *, #38, .F. ) ;
#144 = ORIENTED_EDGE ( 'NONE', *, *, #36, .T. ) ;
#145 = LINE ( 'NONE', #146, #65 ) ;
#146 = CARTESIAN_POINT ( 'NONE',  ( 0.0000000000000000000, 0.0000000000000000000, 0.0000000000000000000 ) ) ;
#147 = DIRECTION ( 'NONE',  ( -0.0000000000000000000, -0.0000000000000000000, 1.000000000000000000 ) ) ;
#148 = PLANE ( 'NONE',  #187 ) ;
#149 = LINE ( 'NONE', #150, #66 ) ;
#150 = CARTESIAN_POINT ( 'NONE',  ( 0.0000000000000000000, 0.1250000000000000000, 0.0000000000000000000 ) ) ;
#151 = DIRECTION ( 'NONE',  ( -0.0000000000000000000, -0.0000000000000000000, 1.000000000000000000 ) ) ;
#152 = LINE ( 'NONE', #153, #67 ) ;
#153 = CARTESIAN_POINT ( 'NONE',  ( 0.0000000000000000000, 0.1250000000000000000, 0.0000000000000000000 ) ) ;
#154 = DIRECTION ( 'NONE',  ( -0.0000000000000000000, -1.000000000000000000, -0.0000000000000000000 ) ) ;
#155 = LINE ( 'NONE', #156, #68 ) ;
#156 = CARTESIAN_POINT ( 'NONE',  ( 0.2500000000000000600, 0.1250000000000000000, -0.2499999999999998100 ) ) ;
#157 = DIRECTION ( 'NONE',  ( -0.0000000000000000000, -0.0000000000000000000, -1.000000000000000000 ) ) ;
#158 = LINE ( 'NONE', #83, #69 ) ;
#159 = PRODUCT_DEFINITION_SHAPE ( 'NONE', 'NONE',  #31 ) ;
#160 = MANIFOLD_SOLID_BREP ( 'Boss-Extrude1', #63 ) ;
#161 = PRODUCT_DEFINITION_CONTEXT ( 'detailed design', #2, 'design' ) ;
#162 = VECTOR ( 'NONE', #99, 39.37007874015748100 ) ;
#163 = AXIS2_PLACEMENT_3D ( 'NONE', #110, #111, #112 ) ;
#164 = VECTOR ( 'NONE', #87, 39.37007874015748100 ) ;
#165 = VECTOR ( 'NONE', #90, 39.37007874015748100 ) ;
#166 = VECTOR ( 'NONE', #93, 39.37007874015748100 ) ;
#167 = VECTOR ( 'NONE', #96, 39.37007874015748100 ) ;
#168 = CARTESIAN_POINT ( 'NONE',  ( 0.2500000000000000600, 0.1250000000000000000, -0.2499999999999998100 ) ) ;
#169 = CARTESIAN_POINT ( 'NONE',  ( 0.0000000000000000000, 0.0000000000000000000, -0.2499999999999998100 ) ) ;
#170 = CARTESIAN_POINT ( 'NONE',  ( 0.0000000000000000000, 0.1250000000000000000, -0.2499999999999998100 ) ) ;
#171 =( LENGTH_UNIT ( ) NAMED_UNIT ( * ) SI_UNIT ( $, .METRE. ) );
#172 =( CONVERSION_BASED_UNIT ( 'INCH', #62 ) LENGTH_UNIT ( ) NAMED_UNIT ( #121 ) );
#173 =( NAMED_UNIT ( * ) PLANE_ANGLE_UNIT ( ) SI_UNIT ( $, .RADIAN. ) );
#174 =( NAMED_UNIT ( * ) SI_UNIT ( $, .STERADIAN. ) SOLID_ANGLE_UNIT ( ) );
#175 = APPLICATION_PROTOCOL_DEFINITION ( 'draft international standard', 'automotive_design', 1998, #2 ) ;
#176 = FILL_AREA_STYLE_COLOUR ( '', #29 ) ;
#177 = FILL_AREA_STYLE ('',( #176 ) ) ;
#178 = SURFACE_STYLE_FILL_AREA ( #177 ) ;
#179 = SURFACE_SIDE_STYLE ('',( #178 ) ) ;
#180 = SURFACE_STYLE_USAGE ( .BOTH. , #179 ) ;
#181 = PRESENTATION_STYLE_ASSIGNMENT (( #180 ) ) ;
#182 =( LENGTH_UNIT ( ) NAMED_UNIT ( * ) SI_UNIT ( $, .METRE. ) );
#183 =( CONVERSION_BASED_UNIT ( 'INCH', #80 ) LENGTH_UNIT ( ) NAMED_UNIT ( #120 ) );
#184 =( NAMED_UNIT ( * ) PLANE_ANGLE_UNIT ( ) SI_UNIT ( $, .RADIAN. ) );
#185 = VECTOR ( 'NONE', #102, 39.37007874015748100 ) ;
#186 = VECTOR ( 'NONE', #105, 39.37007874015748100 ) ;
#187 = AXIS2_PLACEMENT_3D ( 'NONE', #106, #107, #108 ) ;
#188 = FACE_OUTER_BOUND ( 'NONE', #192, .T. ) ;
#189 = FACE_OUTER_BOUND ( 'NONE', #193, .T. ) ;
#190 = FACE_OUTER_BOUND ( 'NONE', #195, .T. ) ;
#191 = AXIS2_PLACEMENT_3D ( 'NONE', #114, #115, #116 ) ;
#192 = EDGE_LOOP ( 'NONE', ( #126, #133, #134, #132 ) ) ;
#193 = EDGE_LOOP ( 'NONE', ( #130, #125, #128, #124 ) ) ;
#194 = EDGE_LOOP ( 'NONE', ( #123, #131, #129, #127 ) ) ;
#195 = EDGE_LOOP ( 'NONE', ( #137, #136, #207, #144 ) ) ;
#196 = EDGE_LOOP ( 'NONE', ( #141, #142, #139, #138 ) ) ;
#197 = VERTEX_POINT ( 'NONE', #23 ) ;
#198 = VERTEX_POINT ( 'NONE', #24 ) ;
#199 = VERTEX_POINT ( 'NONE', #25 ) ;
#200 = VERTEX_POINT ( 'NONE', #26 ) ;
#201 = VERTEX_POINT ( 'NONE', #27 ) ;
#202 = VERTEX_POINT ( 'NONE', #168 ) ;
#203 = VERTEX_POINT ( 'NONE', #169 ) ;
#204 = VERTEX_POINT ( 'NONE', #170 ) ;
#205 = ORIENTED_EDGE ( 'NONE', *, *, #37, .F. ) ;
#206 = ORIENTED_EDGE ( 'NONE', *, *, #32, .F. ) ;
#207 = ORIENTED_EDGE ( 'NONE', *, *, #33, .F. ) ;
#208 = ADVANCED_BREP_SHAPE_REPRESENTATION ( 'Q125B', ( #160, #81 ), #54 ) ;
#209 = UNCERTAINTY_MEASURE_WITH_UNIT (LENGTH_MEASURE( 1.000000000000000100E-005 ), #20, 'distance_accuracy_value', 'NONE');
#210 = UNCERTAINTY_MEASURE_WITH_UNIT (LENGTH_MEASURE( 1.000000000000000100E-005 ), #183, 'distance_accuracy_value', 'NONE');
#211 = UNCERTAINTY_MEASURE_WITH_UNIT (LENGTH_MEASURE( 1.000000000000000100E-005 ), #172, 'distance_accuracy_value', 'NONE');
ENDSEC;
END-ISO-10303-21;
