ISO-10303-21;
HEADER;
FILE_DESCRIPTION (( 'STEP AP214' ),
    '1' );
FILE_NAME ('Q125C.step',
    '2012-04-20T21:03:00',
    ( '' ),
    ( '' ),
    'SwSTEP 2.0',
    'SolidWorks 2012',
    '' );
FILE_SCHEMA (( 'AUTOMOTIVE_DESIGN' ));
ENDSEC;

DATA;
#1 = VECTOR ( 'NONE', #123, 39.37007874015748100 ) ;
#2 = AXIS2_PLACEMENT_3D ( 'NONE', #127, #128, #129 ) ;
#3 = FACE_OUTER_BOUND ( 'NONE', #173, .T. ) ;
#4 = LENGTH_MEASURE_WITH_UNIT ( LENGTH_MEASURE( 0.02539999999999999900 ), #28 );
#5 = VECTOR ( 'NONE', #126, 39.37007874015748100 ) ;
#6 = FACE_OUTER_BOUND ( 'NONE', #174, .T. ) ;
#7 = FACE_OUTER_BOUND ( 'NONE', #176, .T. ) ;
#8 = AXIS2_PLACEMENT_3D ( 'NONE', #135, #136, #137 ) ;
#9 = AXIS2_PLACEMENT_3D ( 'NONE', #143, #144, #145 ) ;
#10 = EDGE_LOOP ( 'NONE', ( #172, #170, #24, #171 ) ) ;
#11 = EDGE_LOOP ( 'NONE', ( #169, #21, #20, #22 ) ) ;
#12 = VERTEX_POINT ( 'NONE', #189 ) ;
#13 = VERTEX_POINT ( 'NONE', #190 ) ;
#14 = VERTEX_POINT ( 'NONE', #191 ) ;
#15 = VERTEX_POINT ( 'NONE', #192 ) ;
#16 = VERTEX_POINT ( 'NONE', #193 ) ;
#17 = VERTEX_POINT ( 'NONE', #194 ) ;
#18 = VERTEX_POINT ( 'NONE', #195 ) ;
#19 = VERTEX_POINT ( 'NONE', #196 ) ;
#20 = ORIENTED_EDGE ( 'NONE', *, *, #54, .F. ) ;
#21 = ORIENTED_EDGE ( 'NONE', *, *, #58, .F. ) ;
#22 = ORIENTED_EDGE ( 'NONE', *, *, #49, .F. ) ;
#23 = ORIENTED_EDGE ( 'NONE', *, *, #53, .F. ) ;
#24 = ORIENTED_EDGE ( 'NONE', *, *, #57, .T. ) ;
#25 = APPLICATION_CONTEXT ( 'automotive_design' ) ;
#26 = APPLICATION_CONTEXT ( 'automotive_design' ) ;
#27 =( NAMED_UNIT ( * ) SI_UNIT ( $, .STERADIAN. ) SOLID_ANGLE_UNIT ( ) );
#28 =( LENGTH_UNIT ( ) NAMED_UNIT ( * ) SI_UNIT ( $, .METRE. ) );
#29 =( CONVERSION_BASED_UNIT ( 'INCH', #4 ) LENGTH_UNIT ( ) NAMED_UNIT ( #157 ) );
#30 =( NAMED_UNIT ( * ) PLANE_ANGLE_UNIT ( ) SI_UNIT ( $, .RADIAN. ) );
#31 =( NAMED_UNIT ( * ) SI_UNIT ( $, .STERADIAN. ) SOLID_ANGLE_UNIT ( ) );
#32 = APPLICATION_PROTOCOL_DEFINITION ( 'draft international standard', 'automotive_design', 1998, #26 ) ;
#33 = PRODUCT_CONTEXT ( 'NONE', #25, 'mechanical' ) ;
#34 = FILL_AREA_STYLE_COLOUR ( '', #46 ) ;
#35 = FILL_AREA_STYLE ('',( #34 ) ) ;
#36 = SURFACE_STYLE_FILL_AREA ( #35 ) ;
#37 = SURFACE_SIDE_STYLE ('',( #36 ) ) ;
#38 = SURFACE_STYLE_USAGE ( .BOTH. , #37 ) ;
#39 = PRESENTATION_STYLE_ASSIGNMENT (( #38 ) ) ;
#40 =( LENGTH_UNIT ( ) NAMED_UNIT ( * ) SI_UNIT ( $, .METRE. ) );
#41 =( CONVERSION_BASED_UNIT ( 'INCH', #73 ) LENGTH_UNIT ( ) NAMED_UNIT ( #156 ) );
#42 = LENGTH_MEASURE_WITH_UNIT ( LENGTH_MEASURE( 0.02539999999999999900 ), #152 );
#43 = PRODUCT_DEFINITION ( 'UNKNOWN', '', #211, #161 ) ;
#44 = PRODUCT_RELATED_PRODUCT_CATEGORY ( 'part', '', ( #155 ) ) ;
#45 = COLOUR_RGB ( '',0.5686274509803921400, 0.5686274509803921400, 0.5882352941176470800 ) ;
#46 = COLOUR_RGB ( '',0.5686274509803921400, 0.5686274509803921400, 0.5882352941176470800 ) ;
#47 = ADVANCED_FACE ( 'NONE', ( #76 ), #197, .F. ) ;
#48 = EDGE_CURVE ( 'NONE', #12, #13, #201, .T. ) ;
#49 = EDGE_CURVE ( 'NONE', #13, #16, #94, .T. ) ;
#50 = EDGE_CURVE ( 'NONE', #17, #16, #97, .T. ) ;
#51 = EDGE_CURVE ( 'NONE', #14, #17, #100, .T. ) ;
#52 = EDGE_CURVE ( 'NONE', #19, #18, #103, .T. ) ;
#53 = EDGE_CURVE ( 'NONE', #15, #12, #106, .T. ) ;
#54 = EDGE_CURVE ( 'NONE', #16, #18, #109, .T. ) ;
#55 = EDGE_CURVE ( 'NONE', #14, #13, #112, .T. ) ;
#56 = EDGE_CURVE ( 'NONE', #15, #14, #115, .T. ) ;
#57 = EDGE_CURVE ( 'NONE', #17, #19, #118, .T. ) ;
#58 = EDGE_CURVE ( 'NONE', #18, #12, #121, .T. ) ;
#59 = EDGE_CURVE ( 'NONE', #19, #15, #124, .T. ) ;
#60 = ADVANCED_FACE ( 'NONE', ( #79 ), #93, .F. ) ;
#61 = ADVANCED_FACE ( 'NONE', ( #3 ), #130, .F. ) ;
#62 = ADVANCED_FACE ( 'NONE', ( #6 ), #134, .F. ) ;
#63 = ADVANCED_FACE ( 'NONE', ( #7 ), #138, .F. ) ;
#64 = ADVANCED_FACE ( 'NONE', ( #65 ), #142, .T. ) ;
#65 = FACE_OUTER_BOUND ( 'NONE', #11, .T. ) ;
#66 = PRESENTATION_LAYER_ASSIGNMENT (  '', '', ( #68 ) ) ;
#67 = AXIS2_PLACEMENT_3D ( 'NONE', #139, #140, #141 ) ;
#68 = STYLED_ITEM ( 'NONE', ( #151 ), #160 ) ;
#69 = MECHANICAL_DESIGN_GEOMETRIC_PRESENTATION_REPRESENTATION (  '', ( #68 ), #208 ) ;
#70 = STYLED_ITEM ( 'NONE', ( #39 ), #162 ) ;
#71 = PRESENTATION_LAYER_ASSIGNMENT (  '', '', ( #70 ) ) ;
#72 = MECHANICAL_DESIGN_GEOMETRIC_PRESENTATION_REPRESENTATION (  '', ( #70 ), #210 ) ;
#73 = LENGTH_MEASURE_WITH_UNIT ( LENGTH_MEASURE( 0.02539999999999999900 ), #40 );
#74 = AXIS2_PLACEMENT_3D ( 'NONE', #86, #87, #88 ) ;
#75 = AXIS2_PLACEMENT_3D ( 'NONE', #198, #199, #200 ) ;
#76 = FACE_OUTER_BOUND ( 'NONE', #10, .T. ) ;
#77 = CLOSED_SHELL ( 'NONE', ( #60, #61, #62, #63, #47, #64 ) ) ;
#78 = AXIS2_PLACEMENT_3D ( 'NONE', #131, #132, #133 ) ;
#79 = FACE_OUTER_BOUND ( 'NONE', #175, .T. ) ;
#80 = VECTOR ( 'NONE', #92, 39.37007874015748100 ) ;
#81 = VECTOR ( 'NONE', #96, 39.37007874015748100 ) ;
#82 = VECTOR ( 'NONE', #99, 39.37007874015748100 ) ;
#83 = VECTOR ( 'NONE', #102, 39.37007874015748100 ) ;
#84 =( NAMED_UNIT ( * ) PLANE_ANGLE_UNIT ( ) SI_UNIT ( $, .RADIAN. ) );
#85 =( NAMED_UNIT ( * ) SI_UNIT ( $, .STERADIAN. ) SOLID_ANGLE_UNIT ( ) );
#86 = CARTESIAN_POINT ( 'NONE',  ( 0.0000000000000000000, 0.0000000000000000000, 0.0000000000000000000 ) ) ;
#87 = DIRECTION ( 'NONE',  ( 0.0000000000000000000, 0.0000000000000000000, 1.000000000000000000 ) ) ;
#88 = DIRECTION ( 'NONE',  ( 1.000000000000000000, 0.0000000000000000000, 0.0000000000000000000 ) ) ;
#89 = SHAPE_DEFINITION_REPRESENTATION ( #159, #162 ) ;
#90 = APPLICATION_PROTOCOL_DEFINITION ( 'draft international standard', 'automotive_design', 1998, #25 ) ;
#91 = CARTESIAN_POINT ( 'NONE',  ( 0.3750000000000000600, 0.0000000000000000000, -1.530808498934193000E-017 ) ) ;
#92 = DIRECTION ( 'NONE',  ( 1.000000000000000000, -0.0000000000000000000, -4.082155997157848100E-017 ) ) ;
#93 = PLANE ( 'NONE',  #2 ) ;
#94 = LINE ( 'NONE', #95, #81 ) ;
#95 = CARTESIAN_POINT ( 'NONE',  ( 0.3749999999999998300, 0.0000000000000000000, -0.3750000000000000600 ) ) ;
#96 = DIRECTION ( 'NONE',  ( -5.463695987328526400E-016, -0.0000000000000000000, -1.000000000000000000 ) ) ;
#97 = LINE ( 'NONE', #98, #82 ) ;
#98 = CARTESIAN_POINT ( 'NONE',  ( 0.3749999999999998300, 0.1250000000000000000, -0.3750000000000000600 ) ) ;
#99 = DIRECTION ( 'NONE',  ( -0.0000000000000000000, -1.000000000000000000, -0.0000000000000000000 ) ) ;
#100 = LINE ( 'NONE', #101, #83 ) ;
#101 = CARTESIAN_POINT ( 'NONE',  ( 0.3749999999999998300, 0.1250000000000000000, -0.3750000000000000600 ) ) ;
#102 = DIRECTION ( 'NONE',  ( -5.463695987328526400E-016, -0.0000000000000000000, -1.000000000000000000 ) ) ;
#103 = LINE ( 'NONE', #104, #202 ) ;
#104 = CARTESIAN_POINT ( 'NONE',  ( 0.0000000000000000000, 0.1250000000000000000, -0.3750000000000000600 ) ) ;
#105 = DIRECTION ( 'NONE',  ( -0.0000000000000000000, -1.000000000000000000, -0.0000000000000000000 ) ) ;
#106 = LINE ( 'NONE', #107, #203 ) ;
#107 = CARTESIAN_POINT ( 'NONE',  ( 0.0000000000000000000, 0.1250000000000000000, 0.0000000000000000000 ) ) ;
#108 = DIRECTION ( 'NONE',  ( -0.0000000000000000000, -1.000000000000000000, -0.0000000000000000000 ) ) ;
#109 = LINE ( 'NONE', #110, #204 ) ;
#110 = CARTESIAN_POINT ( 'NONE',  ( 0.0000000000000000000, 0.0000000000000000000, -0.3750000000000000600 ) ) ;
#111 = DIRECTION ( 'NONE',  ( -1.000000000000000000, -0.0000000000000000000, -0.0000000000000000000 ) ) ;
#112 = LINE ( 'NONE', #113, #205 ) ;
#113 = CARTESIAN_POINT ( 'NONE',  ( 0.3750000000000000600, 0.1250000000000000000, -1.530808498934193000E-017 ) ) ;
#114 = DIRECTION ( 'NONE',  ( -0.0000000000000000000, -1.000000000000000000, -0.0000000000000000000 ) ) ;
#115 = LINE ( 'NONE', #116, #206 ) ;
#116 = CARTESIAN_POINT ( 'NONE',  ( 0.3750000000000000600, 0.1250000000000000000, -1.530808498934193000E-017 ) ) ;
#117 = DIRECTION ( 'NONE',  ( 1.000000000000000000, -0.0000000000000000000, -4.082155997157848100E-017 ) ) ;
#118 = LINE ( 'NONE', #119, #207 ) ;
#119 = CARTESIAN_POINT ( 'NONE',  ( 0.0000000000000000000, 0.1250000000000000000, -0.3750000000000000600 ) ) ;
#120 = DIRECTION ( 'NONE',  ( -1.000000000000000000, -0.0000000000000000000, -0.0000000000000000000 ) ) ;
#121 = LINE ( 'NONE', #122, #1 ) ;
#122 = CARTESIAN_POINT ( 'NONE',  ( 0.0000000000000000000, 0.0000000000000000000, 0.0000000000000000000 ) ) ;
#123 = DIRECTION ( 'NONE',  ( -0.0000000000000000000, -0.0000000000000000000, 1.000000000000000000 ) ) ;
#124 = LINE ( 'NONE', #125, #5 ) ;
#125 = CARTESIAN_POINT ( 'NONE',  ( 0.0000000000000000000, 0.1250000000000000000, 0.0000000000000000000 ) ) ;
#126 = DIRECTION ( 'NONE',  ( -0.0000000000000000000, -0.0000000000000000000, 1.000000000000000000 ) ) ;
#127 = CARTESIAN_POINT ( 'NONE',  ( 0.3750000000000000600, 0.1250000000000000000, -1.530808498934193000E-017 ) ) ;
#128 = DIRECTION ( 'NONE',  ( -4.082155997157848700E-017, 0.0000000000000000000, -1.000000000000000000 ) ) ;
#129 = DIRECTION ( 'NONE',  ( -1.000000000000000000, 0.0000000000000000000, 4.082155997157848700E-017 ) ) ;
#130 = PLANE ( 'NONE',  #78 ) ;
#131 = CARTESIAN_POINT ( 'NONE',  ( 0.3749999999999998300, 0.1250000000000000000, -0.3750000000000000600 ) ) ;
#132 = DIRECTION ( 'NONE',  ( -1.000000000000000000, 0.0000000000000000000, 5.463695987328526400E-016 ) ) ;
#133 = DIRECTION ( 'NONE',  ( 5.463695987328526400E-016, 0.0000000000000000000, 1.000000000000000000 ) ) ;
#134 = PLANE ( 'NONE',  #8 ) ;
#135 = CARTESIAN_POINT ( 'NONE',  ( 0.0000000000000000000, 0.1250000000000000000, -0.3750000000000000600 ) ) ;
#136 = DIRECTION ( 'NONE',  ( 0.0000000000000000000, 0.0000000000000000000, 1.000000000000000000 ) ) ;
#137 = DIRECTION ( 'NONE',  ( 1.000000000000000000, 0.0000000000000000000, -0.0000000000000000000 ) ) ;
#138 = PLANE ( 'NONE',  #67 ) ;
#139 = CARTESIAN_POINT ( 'NONE',  ( 0.0000000000000000000, 0.1250000000000000000, 0.0000000000000000000 ) ) ;
#140 = DIRECTION ( 'NONE',  ( 1.000000000000000000, -0.0000000000000000000, 0.0000000000000000000 ) ) ;
#141 = DIRECTION ( 'NONE',  ( 0.0000000000000000000, 0.0000000000000000000, -1.000000000000000000 ) ) ;
#142 = PLANE ( 'NONE',  #9 ) ;
#143 = CARTESIAN_POINT ( 'NONE',  ( 0.0000000000000000000, 0.0000000000000000000, 0.0000000000000000000 ) ) ;
#144 = DIRECTION ( 'NONE',  ( 0.0000000000000000000, -1.000000000000000000, -0.0000000000000000000 ) ) ;
#145 = DIRECTION ( 'NONE',  ( 0.0000000000000000000, 0.0000000000000000000, -1.000000000000000000 ) ) ;
#146 = FILL_AREA_STYLE_COLOUR ( '', #45 ) ;
#147 = FILL_AREA_STYLE ('',( #146 ) ) ;
#148 = SURFACE_STYLE_FILL_AREA ( #147 ) ;
#149 = SURFACE_SIDE_STYLE ('',( #148 ) ) ;
#150 = SURFACE_STYLE_USAGE ( .BOTH. , #149 ) ;
#151 = PRESENTATION_STYLE_ASSIGNMENT (( #150 ) ) ;
#152 =( LENGTH_UNIT ( ) NAMED_UNIT ( * ) SI_UNIT ( $, .METRE. ) );
#153 =( CONVERSION_BASED_UNIT ( 'INCH', #42 ) LENGTH_UNIT ( ) NAMED_UNIT ( #158 ) );
#154 =( NAMED_UNIT ( * ) PLANE_ANGLE_UNIT ( ) SI_UNIT ( $, .RADIAN. ) );
#155 = PRODUCT ( 'Q125C', 'Q125C', '', ( #33 ) ) ;
#156 = DIMENSIONAL_EXPONENTS ( 1.000000000000000000, 0.0000000000000000000, 0.0000000000000000000, 0.0000000000000000000, 0.0000000000000000000, 0.0000000000000000000, 0.0000000000000000000 ) ;
#157 = DIMENSIONAL_EXPONENTS ( 1.000000000000000000, 0.0000000000000000000, 0.0000000000000000000, 0.0000000000000000000, 0.0000000000000000000, 0.0000000000000000000, 0.0000000000000000000 ) ;
#158 = DIMENSIONAL_EXPONENTS ( 1.000000000000000000, 0.0000000000000000000, 0.0000000000000000000, 0.0000000000000000000, 0.0000000000000000000, 0.0000000000000000000, 0.0000000000000000000 ) ;
#159 = PRODUCT_DEFINITION_SHAPE ( 'NONE', 'NONE',  #43 ) ;
#160 = MANIFOLD_SOLID_BREP ( 'Boss-Extrude1', #77 ) ;
#161 = PRODUCT_DEFINITION_CONTEXT ( 'detailed design', #26, 'design' ) ;
#162 = ADVANCED_BREP_SHAPE_REPRESENTATION ( 'Q125C', ( #160, #74 ), #209 ) ;
#163 = UNCERTAINTY_MEASURE_WITH_UNIT (LENGTH_MEASURE( 1.000000000000000100E-005 ), #29, 'distance_accuracy_value', 'NONE');
#164 = UNCERTAINTY_MEASURE_WITH_UNIT (LENGTH_MEASURE( 1.000000000000000100E-005 ), #41, 'distance_accuracy_value', 'NONE');
#165 = UNCERTAINTY_MEASURE_WITH_UNIT (LENGTH_MEASURE( 1.000000000000000100E-005 ), #153, 'distance_accuracy_value', 'NONE');
#166 = ORIENTED_EDGE ( 'NONE', *, *, #58, .T. ) ;
#167 = ORIENTED_EDGE ( 'NONE', *, *, #52, .T. ) ;
#168 = ORIENTED_EDGE ( 'NONE', *, *, #59, .F. ) ;
#169 = ORIENTED_EDGE ( 'NONE', *, *, #48, .F. ) ;
#170 = ORIENTED_EDGE ( 'NONE', *, *, #51, .T. ) ;
#171 = ORIENTED_EDGE ( 'NONE', *, *, #59, .T. ) ;
#172 = ORIENTED_EDGE ( 'NONE', *, *, #56, .T. ) ;
#173 = EDGE_LOOP ( 'NONE', ( #180, #187, #188, #186 ) ) ;
#174 = EDGE_LOOP ( 'NONE', ( #184, #182, #183, #181 ) ) ;
#175 = EDGE_LOOP ( 'NONE', ( #185, #178, #179, #177 ) ) ;
#176 = EDGE_LOOP ( 'NONE', ( #166, #23, #168, #167 ) ) ;
#177 = ORIENTED_EDGE ( 'NONE', *, *, #53, .T. ) ;
#178 = ORIENTED_EDGE ( 'NONE', *, *, #55, .F. ) ;
#179 = ORIENTED_EDGE ( 'NONE', *, *, #56, .F. ) ;
#180 = ORIENTED_EDGE ( 'NONE', *, *, #49, .T. ) ;
#181 = ORIENTED_EDGE ( 'NONE', *, *, #50, .T. ) ;
#182 = ORIENTED_EDGE ( 'NONE', *, *, #52, .F. ) ;
#183 = ORIENTED_EDGE ( 'NONE', *, *, #57, .F. ) ;
#184 = ORIENTED_EDGE ( 'NONE', *, *, #54, .T. ) ;
#185 = ORIENTED_EDGE ( 'NONE', *, *, #48, .T. ) ;
#186 = ORIENTED_EDGE ( 'NONE', *, *, #55, .T. ) ;
#187 = ORIENTED_EDGE ( 'NONE', *, *, #50, .F. ) ;
#188 = ORIENTED_EDGE ( 'NONE', *, *, #51, .F. ) ;
#189 = CARTESIAN_POINT ( 'NONE',  ( 0.0000000000000000000, 0.0000000000000000000, 0.0000000000000000000 ) ) ;
#190 = CARTESIAN_POINT ( 'NONE',  ( 0.3750000000000000600, 0.0000000000000000000, -1.530808498934193000E-017 ) ) ;
#191 = CARTESIAN_POINT ( 'NONE',  ( 0.3750000000000000600, 0.1250000000000000000, -1.530808498934193000E-017 ) ) ;
#192 = CARTESIAN_POINT ( 'NONE',  ( 0.0000000000000000000, 0.1250000000000000000, 0.0000000000000000000 ) ) ;
#193 = CARTESIAN_POINT ( 'NONE',  ( 0.3749999999999998300, 0.0000000000000000000, -0.3750000000000000600 ) ) ;
#194 = CARTESIAN_POINT ( 'NONE',  ( 0.3749999999999998300, 0.1250000000000000000, -0.3750000000000000600 ) ) ;
#195 = CARTESIAN_POINT ( 'NONE',  ( 0.0000000000000000000, 0.0000000000000000000, -0.3750000000000000600 ) ) ;
#196 = CARTESIAN_POINT ( 'NONE',  ( 0.0000000000000000000, 0.1250000000000000000, -0.3750000000000000600 ) ) ;
#197 = PLANE ( 'NONE',  #75 ) ;
#198 = CARTESIAN_POINT ( 'NONE',  ( 0.0000000000000000000, 0.1250000000000000000, 0.0000000000000000000 ) ) ;
#199 = DIRECTION ( 'NONE',  ( 0.0000000000000000000, -1.000000000000000000, -0.0000000000000000000 ) ) ;
#200 = DIRECTION ( 'NONE',  ( 0.0000000000000000000, 0.0000000000000000000, -1.000000000000000000 ) ) ;
#201 = LINE ( 'NONE', #91, #80 ) ;
#202 = VECTOR ( 'NONE', #105, 39.37007874015748100 ) ;
#203 = VECTOR ( 'NONE', #108, 39.37007874015748100 ) ;
#204 = VECTOR ( 'NONE', #111, 39.37007874015748100 ) ;
#205 = VECTOR ( 'NONE', #114, 39.37007874015748100 ) ;
#206 = VECTOR ( 'NONE', #117, 39.37007874015748100 ) ;
#207 = VECTOR ( 'NONE', #120, 39.37007874015748100 ) ;
#208 =( GEOMETRIC_REPRESENTATION_CONTEXT ( 3 ) GLOBAL_UNCERTAINTY_ASSIGNED_CONTEXT ( ( #165 ) ) GLOBAL_UNIT_ASSIGNED_CONTEXT ( ( #153, #154, #27 ) ) REPRESENTATION_CONTEXT ( 'NONE', 'WORKASPACE' ) );
#209 =( GEOMETRIC_REPRESENTATION_CONTEXT ( 3 ) GLOBAL_UNCERTAINTY_ASSIGNED_CONTEXT ( ( #163 ) ) GLOBAL_UNIT_ASSIGNED_CONTEXT ( ( #29, #30, #31 ) ) REPRESENTATION_CONTEXT ( 'NONE', 'WORKASPACE' ) );
#210 =( GEOMETRIC_REPRESENTATION_CONTEXT ( 3 ) GLOBAL_UNCERTAINTY_ASSIGNED_CONTEXT ( ( #164 ) ) GLOBAL_UNIT_ASSIGNED_CONTEXT ( ( #41, #84, #85 ) ) REPRESENTATION_CONTEXT ( 'NONE', 'WORKASPACE' ) );
#211 = PRODUCT_DEFINITION_FORMATION_WITH_SPECIFIED_SOURCE ( 'ANY', '', #155, .NOT_KNOWN. ) ;
ENDSEC;
END-ISO-10303-21;
