ISO-10303-21;
HEADER;
FILE_DESCRIPTION (( 'STEP AP214' ),
    '1' );
FILE_NAME ('Q125H.step',
    '2012-04-20T21:03:12',
    ( '' ),
    ( '' ),
    'SwSTEP 2.0',
    'SolidWorks 2012',
    '' );
FILE_SCHEMA (( 'AUTOMOTIVE_DESIGN' ));
ENDSEC;

DATA;
#1 = AXIS2_PLACEMENT_3D ( 'NONE', #108, #109, #110 ) ;
#2 = VECTOR ( 'NONE', #107, 39.37007874015748100 ) ;
#3 = VECTOR ( 'NONE', #104, 39.37007874015748100 ) ;
#4 = MECHANICAL_DESIGN_GEOMETRIC_PRESENTATION_REPRESENTATION (  '', ( #27 ), #209 ) ;
#5 = ADVANCED_FACE ( 'NONE', ( #41 ), #206, .F. ) ;
#6 = PRODUCT_RELATED_PRODUCT_CATEGORY ( 'part', '', ( #71 ) ) ;
#7 = PRODUCT_DEFINITION ( 'UNKNOWN', '', #56, #93 ) ;
#8 = COLOUR_RGB ( '',0.5686274509803921400, 0.5686274509803921400, 0.5882352941176470800 ) ;
#9 = ADVANCED_FACE ( 'NONE', ( #43 ), #136, .T. ) ;
#10 = COLOUR_RGB ( '',0.5686274509803921400, 0.5686274509803921400, 0.5882352941176470800 ) ;
#11 = EDGE_CURVE ( 'NONE', #174, #88, #140, .T. ) ;
#12 = EDGE_CURVE ( 'NONE', #173, #90, #144, .T. ) ;
#13 = EDGE_CURVE ( 'NONE', #91, #175, #147, .T. ) ;
#14 = EDGE_CURVE ( 'NONE', #89, #92, #150, .T. ) ;
#15 = EDGE_CURVE ( 'NONE', #173, #174, #153, .T. ) ;
#16 = EDGE_CURVE ( 'NONE', #175, #174, #156, .T. ) ;
#17 = EDGE_CURVE ( 'NONE', #89, #91, #159, .T. ) ;
#18 = EDGE_CURVE ( 'NONE', #88, #91, #162, .T. ) ;
#19 = EDGE_CURVE ( 'NONE', #92, #173, #165, .T. ) ;
#20 = EDGE_CURVE ( 'NONE', #90, #89, #168, .T. ) ;
#21 = EDGE_CURVE ( 'NONE', #90, #88, #102, .T. ) ;
#22 = EDGE_CURVE ( 'NONE', #92, #175, #105, .T. ) ;
#23 = ADVANCED_FACE ( 'NONE', ( #44 ), #143, .F. ) ;
#24 = ADVANCED_FACE ( 'NONE', ( #96 ), #111, .F. ) ;
#25 = ADVANCED_FACE ( 'NONE', ( #28 ), #115, .F. ) ;
#26 = ADVANCED_FACE ( 'NONE', ( #39 ), #119, .F. ) ;
#27 = STYLED_ITEM ( 'NONE', ( #133 ), #95 ) ;
#28 = FACE_OUTER_BOUND ( 'NONE', #194, .T. ) ;
#29 = AXIS2_PLACEMENT_3D ( 'NONE', #116, #117, #118 ) ;
#30 = VECTOR ( 'NONE', #149, 39.37007874015748100 ) ;
#31 = VECTOR ( 'NONE', #155, 39.37007874015748100 ) ;
#32 = PRESENTATION_LAYER_ASSIGNMENT (  '', '', ( #27 ) ) ;
#33 = VECTOR ( 'NONE', #158, 39.37007874015748100 ) ;
#34 = VECTOR ( 'NONE', #152, 39.37007874015748100 ) ;
#35 = VECTOR ( 'NONE', #161, 39.37007874015748100 ) ;
#36 = VECTOR ( 'NONE', #164, 39.37007874015748100 ) ;
#37 = VECTOR ( 'NONE', #167, 39.37007874015748100 ) ;
#38 = VECTOR ( 'NONE', #170, 39.37007874015748100 ) ;
#39 = FACE_OUTER_BOUND ( 'NONE', #192, .T. ) ;
#40 = AXIS2_PLACEMENT_3D ( 'NONE', #207, #208, #135 ) ;
#41 = FACE_OUTER_BOUND ( 'NONE', #195, .T. ) ;
#42 = CLOSED_SHELL ( 'NONE', ( #23, #24, #26, #25, #5, #9 ) ) ;
#43 = FACE_OUTER_BOUND ( 'NONE', #196, .T. ) ;
#44 = FACE_OUTER_BOUND ( 'NONE', #193, .T. ) ;
#45 = AXIS2_PLACEMENT_3D ( 'NONE', #120, #121, #122 ) ;
#46 = AXIS2_PLACEMENT_3D ( 'NONE', #137, #138, #139 ) ;
#47 = VECTOR ( 'NONE', #142, 39.37007874015748100 ) ;
#48 = VECTOR ( 'NONE', #146, 39.37007874015748100 ) ;
#49 = LENGTH_MEASURE_WITH_UNIT ( LENGTH_MEASURE( 0.02539999999999999900 ), #134 );
#50 = LENGTH_MEASURE_WITH_UNIT ( LENGTH_MEASURE( 0.02539999999999999900 ), #63 );
#51 = STYLED_ITEM ( 'NONE', ( #76 ), #101 ) ;
#52 = PRESENTATION_LAYER_ASSIGNMENT (  '', '', ( #51 ) ) ;
#53 = MECHANICAL_DESIGN_GEOMETRIC_PRESENTATION_REPRESENTATION (  '', ( #51 ), #211 ) ;
#54 = LENGTH_MEASURE_WITH_UNIT ( LENGTH_MEASURE( 0.02539999999999999900 ), #77 );
#55 = AXIS2_PLACEMENT_3D ( 'NONE', #81, #82, #83 ) ;
#56 = PRODUCT_DEFINITION_FORMATION_WITH_SPECIFIED_SOURCE ( 'ANY', '', #71, .NOT_KNOWN. ) ;
#57 =( CONVERSION_BASED_UNIT ( 'INCH', #49 ) LENGTH_UNIT ( ) NAMED_UNIT ( #73 ) );
#58 =( NAMED_UNIT ( * ) PLANE_ANGLE_UNIT ( ) SI_UNIT ( $, .RADIAN. ) );
#59 =( NAMED_UNIT ( * ) SI_UNIT ( $, .STERADIAN. ) SOLID_ANGLE_UNIT ( ) );
#60 = CARTESIAN_POINT ( 'NONE',  ( 0.0000000000000000000, 0.1250000000000000000, -1.000000000000000000 ) ) ;
#61 = CARTESIAN_POINT ( 'NONE',  ( 0.0000000000000000000, 0.0000000000000000000, -1.000000000000000000 ) ) ;
#62 = CARTESIAN_POINT ( 'NONE',  ( 1.000000000000000000, 0.0000000000000000000, -1.000000000000000000 ) ) ;
#63 =( LENGTH_UNIT ( ) NAMED_UNIT ( * ) SI_UNIT ( $, .METRE. ) );
#64 =( CONVERSION_BASED_UNIT ( 'INCH', #50 ) LENGTH_UNIT ( ) NAMED_UNIT ( #74 ) );
#65 =( NAMED_UNIT ( * ) PLANE_ANGLE_UNIT ( ) SI_UNIT ( $, .RADIAN. ) );
#66 =( NAMED_UNIT ( * ) SI_UNIT ( $, .STERADIAN. ) SOLID_ANGLE_UNIT ( ) );
#67 = FILL_AREA_STYLE_COLOUR ( '', #10 ) ;
#68 = FILL_AREA_STYLE ('',( #67 ) ) ;
#69 = SURFACE_STYLE_FILL_AREA ( #68 ) ;
#70 = SURFACE_SIDE_STYLE ('',( #69 ) ) ;
#71 = PRODUCT ( 'Q125H', 'Q125H', '', ( #86 ) ) ;
#72 = DIMENSIONAL_EXPONENTS ( 1.000000000000000000, 0.0000000000000000000, 0.0000000000000000000, 0.0000000000000000000, 0.0000000000000000000, 0.0000000000000000000, 0.0000000000000000000 ) ;
#73 = DIMENSIONAL_EXPONENTS ( 1.000000000000000000, 0.0000000000000000000, 0.0000000000000000000, 0.0000000000000000000, 0.0000000000000000000, 0.0000000000000000000, 0.0000000000000000000 ) ;
#74 = DIMENSIONAL_EXPONENTS ( 1.000000000000000000, 0.0000000000000000000, 0.0000000000000000000, 0.0000000000000000000, 0.0000000000000000000, 0.0000000000000000000, 0.0000000000000000000 ) ;
#75 = SURFACE_STYLE_USAGE ( .BOTH. , #70 ) ;
#76 = PRESENTATION_STYLE_ASSIGNMENT (( #75 ) ) ;
#77 =( LENGTH_UNIT ( ) NAMED_UNIT ( * ) SI_UNIT ( $, .METRE. ) );
#78 =( CONVERSION_BASED_UNIT ( 'INCH', #54 ) LENGTH_UNIT ( ) NAMED_UNIT ( #72 ) );
#79 =( NAMED_UNIT ( * ) PLANE_ANGLE_UNIT ( ) SI_UNIT ( $, .RADIAN. ) );
#80 =( NAMED_UNIT ( * ) SI_UNIT ( $, .STERADIAN. ) SOLID_ANGLE_UNIT ( ) );
#81 = CARTESIAN_POINT ( 'NONE',  ( 0.0000000000000000000, 0.0000000000000000000, 0.0000000000000000000 ) ) ;
#82 = DIRECTION ( 'NONE',  ( 0.0000000000000000000, 0.0000000000000000000, 1.000000000000000000 ) ) ;
#83 = DIRECTION ( 'NONE',  ( 1.000000000000000000, 0.0000000000000000000, 0.0000000000000000000 ) ) ;
#84 = SHAPE_DEFINITION_REPRESENTATION ( #94, #101 ) ;
#85 = APPLICATION_PROTOCOL_DEFINITION ( 'draft international standard', 'automotive_design', 1998, #171 ) ;
#86 = PRODUCT_CONTEXT ( 'NONE', #171, 'mechanical' ) ;
#87 = APPLICATION_PROTOCOL_DEFINITION ( 'draft international standard', 'automotive_design', 1998, #172 ) ;
#88 = VERTEX_POINT ( 'NONE', #123 ) ;
#89 = VERTEX_POINT ( 'NONE', #124 ) ;
#90 = VERTEX_POINT ( 'NONE', #125 ) ;
#91 = VERTEX_POINT ( 'NONE', #126 ) ;
#92 = VERTEX_POINT ( 'NONE', #127 ) ;
#93 = PRODUCT_DEFINITION_CONTEXT ( 'detailed design', #172, 'design' ) ;
#94 = PRODUCT_DEFINITION_SHAPE ( 'NONE', 'NONE',  #7 ) ;
#95 = MANIFOLD_SOLID_BREP ( 'Boss-Extrude1', #42 ) ;
#96 = FACE_OUTER_BOUND ( 'NONE', #191, .T. ) ;
#97 = AXIS2_PLACEMENT_3D ( 'NONE', #112, #113, #114 ) ;
#98 = UNCERTAINTY_MEASURE_WITH_UNIT (LENGTH_MEASURE( 1.000000000000000100E-005 ), #78, 'distance_accuracy_value', 'NONE');
#99 = UNCERTAINTY_MEASURE_WITH_UNIT (LENGTH_MEASURE( 1.000000000000000100E-005 ), #57, 'distance_accuracy_value', 'NONE');
#100 = UNCERTAINTY_MEASURE_WITH_UNIT (LENGTH_MEASURE( 1.000000000000000100E-005 ), #64, 'distance_accuracy_value', 'NONE');
#101 = ADVANCED_BREP_SHAPE_REPRESENTATION ( 'Q125H', ( #95, #55 ), #210 ) ;
#102 = LINE ( 'NONE', #103, #3 ) ;
#103 = CARTESIAN_POINT ( 'NONE',  ( 0.0000000000000000000, 0.1250000000000000000, 0.0000000000000000000 ) ) ;
#104 = DIRECTION ( 'NONE',  ( -0.0000000000000000000, -1.000000000000000000, -0.0000000000000000000 ) ) ;
#105 = LINE ( 'NONE', #106, #2 ) ;
#106 = CARTESIAN_POINT ( 'NONE',  ( 1.000000000000000000, 0.1250000000000000000, -1.000000000000000000 ) ) ;
#107 = DIRECTION ( 'NONE',  ( -0.0000000000000000000, -1.000000000000000000, -0.0000000000000000000 ) ) ;
#108 = CARTESIAN_POINT ( 'NONE',  ( 1.000000000000000000, 0.1250000000000000000, -3.061616997868381800E-017 ) ) ;
#109 = DIRECTION ( 'NONE',  ( -3.061616997868381800E-017, 0.0000000000000000000, -1.000000000000000000 ) ) ;
#110 = DIRECTION ( 'NONE',  ( -1.000000000000000000, 0.0000000000000000000, 3.061616997868381800E-017 ) ) ;
#111 = PLANE ( 'NONE',  #97 ) ;
#112 = CARTESIAN_POINT ( 'NONE',  ( 1.000000000000000000, 0.1250000000000000000, -1.000000000000000000 ) ) ;
#113 = DIRECTION ( 'NONE',  ( -1.000000000000000000, 0.0000000000000000000, 0.0000000000000000000 ) ) ;
#114 = DIRECTION ( 'NONE',  ( 0.0000000000000000000, 0.0000000000000000000, 1.000000000000000000 ) ) ;
#115 = PLANE ( 'NONE',  #29 ) ;
#116 = CARTESIAN_POINT ( 'NONE',  ( 0.0000000000000000000, 0.1250000000000000000, 0.0000000000000000000 ) ) ;
#117 = DIRECTION ( 'NONE',  ( 1.000000000000000000, -0.0000000000000000000, 0.0000000000000000000 ) ) ;
#118 = DIRECTION ( 'NONE',  ( 0.0000000000000000000, 0.0000000000000000000, -1.000000000000000000 ) ) ;
#119 = PLANE ( 'NONE',  #45 ) ;
#120 = CARTESIAN_POINT ( 'NONE',  ( 0.0000000000000000000, 0.1250000000000000000, -1.000000000000000000 ) ) ;
#121 = DIRECTION ( 'NONE',  ( 0.0000000000000000000, 0.0000000000000000000, 1.000000000000000000 ) ) ;
#122 = DIRECTION ( 'NONE',  ( 1.000000000000000000, 0.0000000000000000000, -0.0000000000000000000 ) ) ;
#123 = CARTESIAN_POINT ( 'NONE',  ( 0.0000000000000000000, 0.0000000000000000000, 0.0000000000000000000 ) ) ;
#124 = CARTESIAN_POINT ( 'NONE',  ( 1.000000000000000000, 0.1250000000000000000, -3.061616997868381800E-017 ) ) ;
#125 = CARTESIAN_POINT ( 'NONE',  ( 0.0000000000000000000, 0.1250000000000000000, 0.0000000000000000000 ) ) ;
#126 = CARTESIAN_POINT ( 'NONE',  ( 1.000000000000000000, 0.0000000000000000000, -3.061616997868381800E-017 ) ) ;
#127 = CARTESIAN_POINT ( 'NONE',  ( 1.000000000000000000, 0.1250000000000000000, -1.000000000000000000 ) ) ;
#128 = FILL_AREA_STYLE_COLOUR ( '', #8 ) ;
#129 = FILL_AREA_STYLE ('',( #128 ) ) ;
#130 = SURFACE_STYLE_FILL_AREA ( #129 ) ;
#131 = SURFACE_SIDE_STYLE ('',( #130 ) ) ;
#132 = SURFACE_STYLE_USAGE ( .BOTH. , #131 ) ;
#133 = PRESENTATION_STYLE_ASSIGNMENT (( #132 ) ) ;
#134 =( LENGTH_UNIT ( ) NAMED_UNIT ( * ) SI_UNIT ( $, .METRE. ) );
#135 = DIRECTION ( 'NONE',  ( 0.0000000000000000000, 0.0000000000000000000, -1.000000000000000000 ) ) ;
#136 = PLANE ( 'NONE',  #46 ) ;
#137 = CARTESIAN_POINT ( 'NONE',  ( 0.0000000000000000000, 0.0000000000000000000, 0.0000000000000000000 ) ) ;
#138 = DIRECTION ( 'NONE',  ( 0.0000000000000000000, -1.000000000000000000, -0.0000000000000000000 ) ) ;
#139 = DIRECTION ( 'NONE',  ( 0.0000000000000000000, 0.0000000000000000000, -1.000000000000000000 ) ) ;
#140 = LINE ( 'NONE', #141, #47 ) ;
#141 = CARTESIAN_POINT ( 'NONE',  ( 0.0000000000000000000, 0.0000000000000000000, 0.0000000000000000000 ) ) ;
#142 = DIRECTION ( 'NONE',  ( -0.0000000000000000000, -0.0000000000000000000, 1.000000000000000000 ) ) ;
#143 = PLANE ( 'NONE',  #1 ) ;
#144 = LINE ( 'NONE', #145, #48 ) ;
#145 = CARTESIAN_POINT ( 'NONE',  ( 0.0000000000000000000, 0.1250000000000000000, 0.0000000000000000000 ) ) ;
#146 = DIRECTION ( 'NONE',  ( -0.0000000000000000000, -0.0000000000000000000, 1.000000000000000000 ) ) ;
#147 = LINE ( 'NONE', #148, #30 ) ;
#148 = CARTESIAN_POINT ( 'NONE',  ( 1.000000000000000000, 0.0000000000000000000, -1.000000000000000000 ) ) ;
#149 = DIRECTION ( 'NONE',  ( -0.0000000000000000000, -0.0000000000000000000, -1.000000000000000000 ) ) ;
#150 = LINE ( 'NONE', #151, #34 ) ;
#151 = CARTESIAN_POINT ( 'NONE',  ( 1.000000000000000000, 0.1250000000000000000, -1.000000000000000000 ) ) ;
#152 = DIRECTION ( 'NONE',  ( -0.0000000000000000000, -0.0000000000000000000, -1.000000000000000000 ) ) ;
#153 = LINE ( 'NONE', #154, #31 ) ;
#154 = CARTESIAN_POINT ( 'NONE',  ( 0.0000000000000000000, 0.1250000000000000000, -1.000000000000000000 ) ) ;
#155 = DIRECTION ( 'NONE',  ( -0.0000000000000000000, -1.000000000000000000, -0.0000000000000000000 ) ) ;
#156 = LINE ( 'NONE', #157, #33 ) ;
#157 = CARTESIAN_POINT ( 'NONE',  ( 0.0000000000000000000, 0.0000000000000000000, -1.000000000000000000 ) ) ;
#158 = DIRECTION ( 'NONE',  ( -1.000000000000000000, -0.0000000000000000000, -0.0000000000000000000 ) ) ;
#159 = LINE ( 'NONE', #160, #35 ) ;
#160 = CARTESIAN_POINT ( 'NONE',  ( 1.000000000000000000, 0.1250000000000000000, -3.061616997868381800E-017 ) ) ;
#161 = DIRECTION ( 'NONE',  ( -0.0000000000000000000, -1.000000000000000000, -0.0000000000000000000 ) ) ;
#162 = LINE ( 'NONE', #163, #36 ) ;
#163 = CARTESIAN_POINT ( 'NONE',  ( 1.000000000000000000, 0.0000000000000000000, -3.061616997868381800E-017 ) ) ;
#164 = DIRECTION ( 'NONE',  ( 1.000000000000000000, -0.0000000000000000000, -3.061616997868381800E-017 ) ) ;
#165 = LINE ( 'NONE', #166, #37 ) ;
#166 = CARTESIAN_POINT ( 'NONE',  ( 0.0000000000000000000, 0.1250000000000000000, -1.000000000000000000 ) ) ;
#167 = DIRECTION ( 'NONE',  ( -1.000000000000000000, -0.0000000000000000000, -0.0000000000000000000 ) ) ;
#168 = LINE ( 'NONE', #169, #38 ) ;
#169 = CARTESIAN_POINT ( 'NONE',  ( 1.000000000000000000, 0.1250000000000000000, -3.061616997868381800E-017 ) ) ;
#170 = DIRECTION ( 'NONE',  ( 1.000000000000000000, -0.0000000000000000000, -3.061616997868381800E-017 ) ) ;
#171 = APPLICATION_CONTEXT ( 'automotive_design' ) ;
#172 = APPLICATION_CONTEXT ( 'automotive_design' ) ;
#173 = VERTEX_POINT ( 'NONE', #60 ) ;
#174 = VERTEX_POINT ( 'NONE', #61 ) ;
#175 = VERTEX_POINT ( 'NONE', #62 ) ;
#176 = ORIENTED_EDGE ( 'NONE', *, *, #16, .F. ) ;
#177 = ORIENTED_EDGE ( 'NONE', *, *, #11, .F. ) ;
#178 = ORIENTED_EDGE ( 'NONE', *, *, #12, .F. ) ;
#179 = ORIENTED_EDGE ( 'NONE', *, *, #21, .T. ) ;
#180 = ORIENTED_EDGE ( 'NONE', *, *, #17, .F. ) ;
#181 = ORIENTED_EDGE ( 'NONE', *, *, #13, .T. ) ;
#182 = ORIENTED_EDGE ( 'NONE', *, *, #20, .F. ) ;
#183 = ORIENTED_EDGE ( 'NONE', *, *, #22, .T. ) ;
#184 = ORIENTED_EDGE ( 'NONE', *, *, #15, .F. ) ;
#185 = ORIENTED_EDGE ( 'NONE', *, *, #19, .F. ) ;
#186 = ORIENTED_EDGE ( 'NONE', *, *, #16, .T. ) ;
#187 = ORIENTED_EDGE ( 'NONE', *, *, #18, .T. ) ;
#188 = ORIENTED_EDGE ( 'NONE', *, *, #17, .T. ) ;
#189 = ORIENTED_EDGE ( 'NONE', *, *, #22, .F. ) ;
#190 = ORIENTED_EDGE ( 'NONE', *, *, #14, .F. ) ;
#191 = EDGE_LOOP ( 'NONE', ( #181, #189, #190, #188 ) ) ;
#192 = EDGE_LOOP ( 'NONE', ( #186, #184, #185, #183 ) ) ;
#193 = EDGE_LOOP ( 'NONE', ( #187, #180, #182, #179 ) ) ;
#194 = EDGE_LOOP ( 'NONE', ( #202, #200, #178, #199 ) ) ;
#195 = EDGE_LOOP ( 'NONE', ( #201, #198, #205, #197 ) ) ;
#196 = EDGE_LOOP ( 'NONE', ( #204, #177, #176, #203 ) ) ;
#197 = ORIENTED_EDGE ( 'NONE', *, *, #12, .T. ) ;
#198 = ORIENTED_EDGE ( 'NONE', *, *, #14, .T. ) ;
#199 = ORIENTED_EDGE ( 'NONE', *, *, #15, .T. ) ;
#200 = ORIENTED_EDGE ( 'NONE', *, *, #21, .F. ) ;
#201 = ORIENTED_EDGE ( 'NONE', *, *, #20, .T. ) ;
#202 = ORIENTED_EDGE ( 'NONE', *, *, #11, .T. ) ;
#203 = ORIENTED_EDGE ( 'NONE', *, *, #13, .F. ) ;
#204 = ORIENTED_EDGE ( 'NONE', *, *, #18, .F. ) ;
#205 = ORIENTED_EDGE ( 'NONE', *, *, #19, .T. ) ;
#206 = PLANE ( 'NONE',  #40 ) ;
#207 = CARTESIAN_POINT ( 'NONE',  ( 0.0000000000000000000, 0.1250000000000000000, 0.0000000000000000000 ) ) ;
#208 = DIRECTION ( 'NONE',  ( 0.0000000000000000000, -1.000000000000000000, -0.0000000000000000000 ) ) ;
#209 =( GEOMETRIC_REPRESENTATION_CONTEXT ( 3 ) GLOBAL_UNCERTAINTY_ASSIGNED_CONTEXT ( ( #99 ) ) GLOBAL_UNIT_ASSIGNED_CONTEXT ( ( #57, #58, #59 ) ) REPRESENTATION_CONTEXT ( 'NONE', 'WORKASPACE' ) );
#210 =( GEOMETRIC_REPRESENTATION_CONTEXT ( 3 ) GLOBAL_UNCERTAINTY_ASSIGNED_CONTEXT ( ( #100 ) ) GLOBAL_UNIT_ASSIGNED_CONTEXT ( ( #64, #65, #66 ) ) REPRESENTATION_CONTEXT ( 'NONE', 'WORKASPACE' ) );
#211 =( GEOMETRIC_REPRESENTATION_CONTEXT ( 3 ) GLOBAL_UNCERTAINTY_ASSIGNED_CONTEXT ( ( #98 ) ) GLOBAL_UNIT_ASSIGNED_CONTEXT ( ( #78, #79, #80 ) ) REPRESENTATION_CONTEXT ( 'NONE', 'WORKASPACE' ) );
ENDSEC;
END-ISO-10303-21;
