ISO-10303-21;
HEADER;
FILE_DESCRIPTION (( 'STEP AP214' ),
    '1' );
FILE_NAME ('Q250C.step',
    '2012-04-20T21:03:20',
    ( '' ),
    ( '' ),
    'SwSTEP 2.0',
    'SolidWorks 2012',
    '' );
FILE_SCHEMA (( 'AUTOMOTIVE_DESIGN' ));
ENDSEC;

DATA;
#1 = EDGE_LOOP ( 'NONE', ( #209, #211, #210, #189 ) ) ;
#2 = STYLED_ITEM ( 'NONE', ( #136 ), #144 ) ;
#3 = PRESENTATION_LAYER_ASSIGNMENT (  '', '', ( #2 ) ) ;
#4 = MECHANICAL_DESIGN_GEOMETRIC_PRESENTATION_REPRESENTATION (  '', ( #2 ), #173 ) ;
#5 = LENGTH_MEASURE_WITH_UNIT ( LENGTH_MEASURE( 0.02539999999999999900 ), #137 );
#6 = LENGTH_MEASURE_WITH_UNIT ( LENGTH_MEASURE( 0.02539999999999999900 ), #86 );
#7 = STYLED_ITEM ( 'NONE', ( #154 ), #145 ) ;
#8 = PRESENTATION_LAYER_ASSIGNMENT (  '', '', ( #7 ) ) ;
#9 = MECHANICAL_DESIGN_GEOMETRIC_PRESENTATION_REPRESENTATION (  '', ( #7 ), #175 ) ;
#10 = LENGTH_MEASURE_WITH_UNIT ( LENGTH_MEASURE( 0.02539999999999999900 ), #155 );
#11 = AXIS2_PLACEMENT_3D ( 'NONE', #159, #160, #161 ) ;
#12 = PRODUCT_DEFINITION_FORMATION_WITH_SPECIFIED_SOURCE ( 'ANY', '', #138, .NOT_KNOWN. ) ;
#13 = ORIENTED_EDGE ( 'NONE', *, *, #53, .T. ) ;
#14 = PLANE ( 'NONE',  #99 ) ;
#15 = CARTESIAN_POINT ( 'NONE',  ( 0.0000000000000000000, 0.2500000000000000000, 0.0000000000000000000 ) ) ;
#16 = DIRECTION ( 'NONE',  ( 0.0000000000000000000, -1.000000000000000000, 0.0000000000000000000 ) ) ;
#17 = DIRECTION ( 'NONE',  ( 0.0000000000000000000, 0.0000000000000000000, -1.000000000000000000 ) ) ;
#18 = LINE ( 'NONE', #19, #103 ) ;
#19 = CARTESIAN_POINT ( 'NONE',  ( 0.3749999999999999400, 0.0000000000000000000, 7.654042494670955400E-017 ) ) ;
#20 = DIRECTION ( 'NONE',  ( 1.000000000000000000, -0.0000000000000000000, 2.041077998578921800E-016 ) ) ;
#21 = PLANE ( 'NONE',  #170 ) ;
#22 = LINE ( 'NONE', #23, #104 ) ;
#23 = CARTESIAN_POINT ( 'NONE',  ( 0.3749999999999999400, 0.2500000000000000000, 7.654042494670955400E-017 ) ) ;
#24 = DIRECTION ( 'NONE',  ( -0.0000000000000000000, -1.000000000000000000, -0.0000000000000000000 ) ) ;
#25 = LINE ( 'NONE', #26, #105 ) ;
#26 = CARTESIAN_POINT ( 'NONE',  ( 0.3749999999999998300, 0.0000000000000000000, -0.3749999999999999400 ) ) ;
#27 = DIRECTION ( 'NONE',  ( -3.642463991552351500E-016, -0.0000000000000000000, -1.000000000000000000 ) ) ;
#28 = LINE ( 'NONE', #29, #97 ) ;
#29 = CARTESIAN_POINT ( 'NONE',  ( 0.3749999999999998300, 0.2500000000000000000, -0.3749999999999999400 ) ) ;
#30 = DIRECTION ( 'NONE',  ( -0.0000000000000000000, -1.000000000000000000, -0.0000000000000000000 ) ) ;
#31 = LINE ( 'NONE', #32, #96 ) ;
#32 = CARTESIAN_POINT ( 'NONE',  ( 0.0000000000000000000, 0.2500000000000000000, 0.0000000000000000000 ) ) ;
#33 = DIRECTION ( 'NONE',  ( -0.0000000000000000000, -1.000000000000000000, -0.0000000000000000000 ) ) ;
#34 = LINE ( 'NONE', #35, #98 ) ;
#35 = CARTESIAN_POINT ( 'NONE',  ( 0.3749999999999999400, 0.2500000000000000000, 7.654042494670955400E-017 ) ) ;
#36 = DIRECTION ( 'NONE',  ( 1.000000000000000000, -0.0000000000000000000, 2.041077998578921800E-016 ) ) ;
#37 = LINE ( 'NONE', #38, #91 ) ;
#38 = CARTESIAN_POINT ( 'NONE',  ( 0.0000000000000000000, 0.2500000000000000000, 0.0000000000000000000 ) ) ;
#39 = DIRECTION ( 'NONE',  ( -0.0000000000000000000, -0.0000000000000000000, 1.000000000000000000 ) ) ;
#40 = LINE ( 'NONE', #41, #90 ) ;
#41 = CARTESIAN_POINT ( 'NONE',  ( 0.0000000000000000000, 0.0000000000000000000, 0.0000000000000000000 ) ) ;
#42 = DIRECTION ( 'NONE',  ( -0.0000000000000000000, -0.0000000000000000000, 1.000000000000000000 ) ) ;
#43 = LINE ( 'NONE', #44, #95 ) ;
#44 = CARTESIAN_POINT ( 'NONE',  ( 0.0000000000000000000, 0.2500000000000000000, -0.3749999999999999400 ) ) ;
#45 = DIRECTION ( 'NONE',  ( -1.000000000000000000, -0.0000000000000000000, -0.0000000000000000000 ) ) ;
#46 = LINE ( 'NONE', #47, #94 ) ;
#47 = CARTESIAN_POINT ( 'NONE',  ( 0.0000000000000000000, 0.0000000000000000000, -0.3749999999999999400 ) ) ;
#48 = DIRECTION ( 'NONE',  ( -1.000000000000000000, -0.0000000000000000000, -0.0000000000000000000 ) ) ;
#49 = COLOUR_RGB ( '',0.5686274509803921400, 0.5686274509803921400, 0.5882352941176470800 ) ;
#50 = ADVANCED_FACE ( 'NONE', ( #100 ), #14, .F. ) ;
#51 = PRODUCT_DEFINITION ( 'UNKNOWN', '', #12, #143 ) ;
#52 = COLOUR_RGB ( '',0.5686274509803921400, 0.5686274509803921400, 0.5882352941176470800 ) ;
#53 = EDGE_CURVE ( 'NONE', #181, #182, #18, .T. ) ;
#54 = EDGE_CURVE ( 'NONE', #183, #182, #22, .T. ) ;
#55 = EDGE_CURVE ( 'NONE', #182, #185, #25, .T. ) ;
#56 = EDGE_CURVE ( 'NONE', #186, #185, #28, .T. ) ;
#57 = EDGE_CURVE ( 'NONE', #184, #181, #31, .T. ) ;
#58 = EDGE_CURVE ( 'NONE', #184, #183, #34, .T. ) ;
#59 = EDGE_CURVE ( 'NONE', #188, #184, #37, .T. ) ;
#60 = PRODUCT_RELATED_PRODUCT_CATEGORY ( 'part', '', ( #138 ) ) ;
#61 = EDGE_CURVE ( 'NONE', #187, #181, #40, .T. ) ;
#62 = EDGE_CURVE ( 'NONE', #186, #188, #43, .T. ) ;
#63 = EDGE_CURVE ( 'NONE', #185, #187, #46, .T. ) ;
#64 = EDGE_CURVE ( 'NONE', #188, #187, #106, .T. ) ;
#65 = EDGE_CURVE ( 'NONE', #183, #186, #109, .T. ) ;
#66 = ADVANCED_FACE ( 'NONE', ( #102 ), #21, .F. ) ;
#67 = ADVANCED_FACE ( 'NONE', ( #169 ), #115, .F. ) ;
#68 = ADVANCED_FACE ( 'NONE', ( #73 ), #119, .F. ) ;
#69 = ADVANCED_FACE ( 'NONE', ( #74 ), #123, .F. ) ;
#70 = ADVANCED_FACE ( 'NONE', ( #71 ), #127, .T. ) ;
#71 = FACE_OUTER_BOUND ( 'NONE', #180, .T. ) ;
#72 = AXIS2_PLACEMENT_3D ( 'NONE', #116, #117, #118 ) ;
#73 = FACE_OUTER_BOUND ( 'NONE', #176, .T. ) ;
#74 = FACE_OUTER_BOUND ( 'NONE', #178, .T. ) ;
#75 =( CONVERSION_BASED_UNIT ( 'INCH', #5 ) LENGTH_UNIT ( ) NAMED_UNIT ( #139 ) );
#76 =( NAMED_UNIT ( * ) PLANE_ANGLE_UNIT ( ) SI_UNIT ( $, .RADIAN. ) );
#77 =( NAMED_UNIT ( * ) SI_UNIT ( $, .STERADIAN. ) SOLID_ANGLE_UNIT ( ) );
#78 = CARTESIAN_POINT ( 'NONE',  ( 0.0000000000000000000, 0.0000000000000000000, 0.0000000000000000000 ) ) ;
#79 = CARTESIAN_POINT ( 'NONE',  ( 0.3749999999999999400, 0.0000000000000000000, 7.654042494670955400E-017 ) ) ;
#80 = CARTESIAN_POINT ( 'NONE',  ( 0.3749999999999999400, 0.2500000000000000000, 7.654042494670955400E-017 ) ) ;
#81 = CARTESIAN_POINT ( 'NONE',  ( 0.0000000000000000000, 0.2500000000000000000, 0.0000000000000000000 ) ) ;
#82 = CARTESIAN_POINT ( 'NONE',  ( 0.3749999999999998300, 0.0000000000000000000, -0.3749999999999999400 ) ) ;
#83 = CARTESIAN_POINT ( 'NONE',  ( 0.3749999999999998300, 0.2500000000000000000, -0.3749999999999999400 ) ) ;
#84 = CARTESIAN_POINT ( 'NONE',  ( 0.0000000000000000000, 0.0000000000000000000, -0.3749999999999999400 ) ) ;
#85 = CARTESIAN_POINT ( 'NONE',  ( 0.0000000000000000000, 0.2500000000000000000, -0.3749999999999999400 ) ) ;
#86 =( LENGTH_UNIT ( ) NAMED_UNIT ( * ) SI_UNIT ( $, .METRE. ) );
#87 =( CONVERSION_BASED_UNIT ( 'INCH', #6 ) LENGTH_UNIT ( ) NAMED_UNIT ( #141 ) );
#88 =( NAMED_UNIT ( * ) PLANE_ANGLE_UNIT ( ) SI_UNIT ( $, .RADIAN. ) );
#89 =( NAMED_UNIT ( * ) SI_UNIT ( $, .STERADIAN. ) SOLID_ANGLE_UNIT ( ) );
#90 = VECTOR ( 'NONE', #42, 39.37007874015748100 ) ;
#91 = VECTOR ( 'NONE', #39, 39.37007874015748100 ) ;
#92 = AXIS2_PLACEMENT_3D ( 'NONE', #124, #125, #126 ) ;
#93 = VECTOR ( 'NONE', #108, 39.37007874015748100 ) ;
#94 = VECTOR ( 'NONE', #48, 39.37007874015748100 ) ;
#95 = VECTOR ( 'NONE', #45, 39.37007874015748100 ) ;
#96 = VECTOR ( 'NONE', #33, 39.37007874015748100 ) ;
#97 = VECTOR ( 'NONE', #30, 39.37007874015748100 ) ;
#98 = VECTOR ( 'NONE', #36, 39.37007874015748100 ) ;
#99 = AXIS2_PLACEMENT_3D ( 'NONE', #15, #16, #17 ) ;
#100 = FACE_OUTER_BOUND ( 'NONE', #179, .T. ) ;
#101 = CLOSED_SHELL ( 'NONE', ( #66, #67, #68, #69, #50, #70 ) ) ;
#102 = FACE_OUTER_BOUND ( 'NONE', #177, .T. ) ;
#103 = VECTOR ( 'NONE', #20, 39.37007874015748100 ) ;
#104 = VECTOR ( 'NONE', #24, 39.37007874015748100 ) ;
#105 = VECTOR ( 'NONE', #27, 39.37007874015748100 ) ;
#106 = LINE ( 'NONE', #107, #93 ) ;
#107 = CARTESIAN_POINT ( 'NONE',  ( 0.0000000000000000000, 0.2500000000000000000, -0.3749999999999999400 ) ) ;
#108 = DIRECTION ( 'NONE',  ( -0.0000000000000000000, -1.000000000000000000, -0.0000000000000000000 ) ) ;
#109 = LINE ( 'NONE', #110, #171 ) ;
#110 = CARTESIAN_POINT ( 'NONE',  ( 0.3749999999999998300, 0.2500000000000000000, -0.3749999999999999400 ) ) ;
#111 = DIRECTION ( 'NONE',  ( -3.642463991552351500E-016, -0.0000000000000000000, -1.000000000000000000 ) ) ;
#112 = CARTESIAN_POINT ( 'NONE',  ( 0.3749999999999999400, 0.2500000000000000000, 7.654042494670955400E-017 ) ) ;
#113 = DIRECTION ( 'NONE',  ( 2.041077998578921400E-016, 0.0000000000000000000, -1.000000000000000000 ) ) ;
#114 = DIRECTION ( 'NONE',  ( -1.000000000000000000, 0.0000000000000000000, -2.041077998578921400E-016 ) ) ;
#115 = PLANE ( 'NONE',  #72 ) ;
#116 = CARTESIAN_POINT ( 'NONE',  ( 0.3749999999999998300, 0.2500000000000000000, -0.3749999999999999400 ) ) ;
#117 = DIRECTION ( 'NONE',  ( -1.000000000000000000, 0.0000000000000000000, 3.642463991552351000E-016 ) ) ;
#118 = DIRECTION ( 'NONE',  ( 3.642463991552351000E-016, 0.0000000000000000000, 1.000000000000000000 ) ) ;
#119 = PLANE ( 'NONE',  #168 ) ;
#120 = CARTESIAN_POINT ( 'NONE',  ( 0.0000000000000000000, 0.2500000000000000000, -0.3749999999999999400 ) ) ;
#121 = DIRECTION ( 'NONE',  ( 0.0000000000000000000, 0.0000000000000000000, 1.000000000000000000 ) ) ;
#122 = DIRECTION ( 'NONE',  ( 1.000000000000000000, 0.0000000000000000000, -0.0000000000000000000 ) ) ;
#123 = PLANE ( 'NONE',  #92 ) ;
#124 = CARTESIAN_POINT ( 'NONE',  ( 0.0000000000000000000, 0.2500000000000000000, 0.0000000000000000000 ) ) ;
#125 = DIRECTION ( 'NONE',  ( 1.000000000000000000, -0.0000000000000000000, 0.0000000000000000000 ) ) ;
#126 = DIRECTION ( 'NONE',  ( 0.0000000000000000000, 0.0000000000000000000, -1.000000000000000000 ) ) ;
#127 = PLANE ( 'NONE',  #172 ) ;
#128 = CARTESIAN_POINT ( 'NONE',  ( 0.0000000000000000000, 0.0000000000000000000, 0.0000000000000000000 ) ) ;
#129 = DIRECTION ( 'NONE',  ( 0.0000000000000000000, -1.000000000000000000, 0.0000000000000000000 ) ) ;
#130 = DIRECTION ( 'NONE',  ( 0.0000000000000000000, 0.0000000000000000000, -1.000000000000000000 ) ) ;
#131 = FILL_AREA_STYLE_COLOUR ( '', #52 ) ;
#132 = FILL_AREA_STYLE ('',( #131 ) ) ;
#133 = SURFACE_STYLE_FILL_AREA ( #132 ) ;
#134 = SURFACE_SIDE_STYLE ('',( #133 ) ) ;
#135 = SURFACE_STYLE_USAGE ( .BOTH. , #134 ) ;
#136 = PRESENTATION_STYLE_ASSIGNMENT (( #135 ) ) ;
#137 =( LENGTH_UNIT ( ) NAMED_UNIT ( * ) SI_UNIT ( $, .METRE. ) );
#138 = PRODUCT ( 'Q250C', 'Q250C', '', ( #164 ) ) ;
#139 = DIMENSIONAL_EXPONENTS ( 1.000000000000000000, 0.0000000000000000000, 0.0000000000000000000, 0.0000000000000000000, 0.0000000000000000000, 0.0000000000000000000, 0.0000000000000000000 ) ;
#140 = DIMENSIONAL_EXPONENTS ( 1.000000000000000000, 0.0000000000000000000, 0.0000000000000000000, 0.0000000000000000000, 0.0000000000000000000, 0.0000000000000000000, 0.0000000000000000000 ) ;
#141 = DIMENSIONAL_EXPONENTS ( 1.000000000000000000, 0.0000000000000000000, 0.0000000000000000000, 0.0000000000000000000, 0.0000000000000000000, 0.0000000000000000000, 0.0000000000000000000 ) ;
#142 = PRODUCT_DEFINITION_SHAPE ( 'NONE', 'NONE',  #51 ) ;
#143 = PRODUCT_DEFINITION_CONTEXT ( 'detailed design', #167, 'design' ) ;
#144 = MANIFOLD_SOLID_BREP ( 'Boss-Extrude1', #101 ) ;
#145 = ADVANCED_BREP_SHAPE_REPRESENTATION ( 'Q250C', ( #144, #11 ), #174 ) ;
#146 = UNCERTAINTY_MEASURE_WITH_UNIT (LENGTH_MEASURE( 1.000000000000000100E-005 ), #87, 'distance_accuracy_value', 'NONE');
#147 = UNCERTAINTY_MEASURE_WITH_UNIT (LENGTH_MEASURE( 1.000000000000000100E-005 ), #156, 'distance_accuracy_value', 'NONE');
#148 = UNCERTAINTY_MEASURE_WITH_UNIT (LENGTH_MEASURE( 1.000000000000000100E-005 ), #75, 'distance_accuracy_value', 'NONE');
#149 = FILL_AREA_STYLE_COLOUR ( '', #49 ) ;
#150 = FILL_AREA_STYLE ('',( #149 ) ) ;
#151 = SURFACE_STYLE_FILL_AREA ( #150 ) ;
#152 = SURFACE_SIDE_STYLE ('',( #151 ) ) ;
#153 = SURFACE_STYLE_USAGE ( .BOTH. , #152 ) ;
#154 = PRESENTATION_STYLE_ASSIGNMENT (( #153 ) ) ;
#155 =( LENGTH_UNIT ( ) NAMED_UNIT ( * ) SI_UNIT ( $, .METRE. ) );
#156 =( CONVERSION_BASED_UNIT ( 'INCH', #10 ) LENGTH_UNIT ( ) NAMED_UNIT ( #140 ) );
#157 =( NAMED_UNIT ( * ) PLANE_ANGLE_UNIT ( ) SI_UNIT ( $, .RADIAN. ) );
#158 =( NAMED_UNIT ( * ) SI_UNIT ( $, .STERADIAN. ) SOLID_ANGLE_UNIT ( ) );
#159 = CARTESIAN_POINT ( 'NONE',  ( 0.0000000000000000000, 0.0000000000000000000, 0.0000000000000000000 ) ) ;
#160 = DIRECTION ( 'NONE',  ( 0.0000000000000000000, 0.0000000000000000000, 1.000000000000000000 ) ) ;
#161 = DIRECTION ( 'NONE',  ( 1.000000000000000000, 0.0000000000000000000, 0.0000000000000000000 ) ) ;
#162 = SHAPE_DEFINITION_REPRESENTATION ( #142, #145 ) ;
#163 = APPLICATION_PROTOCOL_DEFINITION ( 'draft international standard', 'automotive_design', 1998, #166 ) ;
#164 = PRODUCT_CONTEXT ( 'NONE', #166, 'mechanical' ) ;
#165 = APPLICATION_PROTOCOL_DEFINITION ( 'draft international standard', 'automotive_design', 1998, #167 ) ;
#166 = APPLICATION_CONTEXT ( 'automotive_design' ) ;
#167 = APPLICATION_CONTEXT ( 'automotive_design' ) ;
#168 = AXIS2_PLACEMENT_3D ( 'NONE', #120, #121, #122 ) ;
#169 = FACE_OUTER_BOUND ( 'NONE', #1, .T. ) ;
#170 = AXIS2_PLACEMENT_3D ( 'NONE', #112, #113, #114 ) ;
#171 = VECTOR ( 'NONE', #111, 39.37007874015748100 ) ;
#172 = AXIS2_PLACEMENT_3D ( 'NONE', #128, #129, #130 ) ;
#173 =( GEOMETRIC_REPRESENTATION_CONTEXT ( 3 ) GLOBAL_UNCERTAINTY_ASSIGNED_CONTEXT ( ( #148 ) ) GLOBAL_UNIT_ASSIGNED_CONTEXT ( ( #75, #76, #77 ) ) REPRESENTATION_CONTEXT ( 'NONE', 'WORKASPACE' ) );
#174 =( GEOMETRIC_REPRESENTATION_CONTEXT ( 3 ) GLOBAL_UNCERTAINTY_ASSIGNED_CONTEXT ( ( #146 ) ) GLOBAL_UNIT_ASSIGNED_CONTEXT ( ( #87, #88, #89 ) ) REPRESENTATION_CONTEXT ( 'NONE', 'WORKASPACE' ) );
#175 =( GEOMETRIC_REPRESENTATION_CONTEXT ( 3 ) GLOBAL_UNCERTAINTY_ASSIGNED_CONTEXT ( ( #147 ) ) GLOBAL_UNIT_ASSIGNED_CONTEXT ( ( #156, #157, #158 ) ) REPRESENTATION_CONTEXT ( 'NONE', 'WORKASPACE' ) );
#176 = EDGE_LOOP ( 'NONE', ( #190, #192, #191, #193 ) ) ;
#177 = EDGE_LOOP ( 'NONE', ( #13, #207, #206, #208 ) ) ;
#178 = EDGE_LOOP ( 'NONE', ( #195, #196, #194, #198 ) ) ;
#179 = EDGE_LOOP ( 'NONE', ( #199, #200, #201, #197 ) ) ;
#180 = EDGE_LOOP ( 'NONE', ( #203, #204, #205, #202 ) ) ;
#181 = VERTEX_POINT ( 'NONE', #78 ) ;
#182 = VERTEX_POINT ( 'NONE', #79 ) ;
#183 = VERTEX_POINT ( 'NONE', #80 ) ;
#184 = VERTEX_POINT ( 'NONE', #81 ) ;
#185 = VERTEX_POINT ( 'NONE', #82 ) ;
#186 = VERTEX_POINT ( 'NONE', #83 ) ;
#187 = VERTEX_POINT ( 'NONE', #84 ) ;
#188 = VERTEX_POINT ( 'NONE', #85 ) ;
#189 = ORIENTED_EDGE ( 'NONE', *, *, #54, .T. ) ;
#190 = ORIENTED_EDGE ( 'NONE', *, *, #63, .T. ) ;
#191 = ORIENTED_EDGE ( 'NONE', *, *, #62, .F. ) ;
#192 = ORIENTED_EDGE ( 'NONE', *, *, #64, .F. ) ;
#193 = ORIENTED_EDGE ( 'NONE', *, *, #56, .T. ) ;
#194 = ORIENTED_EDGE ( 'NONE', *, *, #59, .F. ) ;
#195 = ORIENTED_EDGE ( 'NONE', *, *, #61, .T. ) ;
#196 = ORIENTED_EDGE ( 'NONE', *, *, #57, .F. ) ;
#197 = ORIENTED_EDGE ( 'NONE', *, *, #59, .T. ) ;
#198 = ORIENTED_EDGE ( 'NONE', *, *, #64, .T. ) ;
#199 = ORIENTED_EDGE ( 'NONE', *, *, #58, .T. ) ;
#200 = ORIENTED_EDGE ( 'NONE', *, *, #65, .T. ) ;
#201 = ORIENTED_EDGE ( 'NONE', *, *, #62, .T. ) ;
#202 = ORIENTED_EDGE ( 'NONE', *, *, #55, .F. ) ;
#203 = ORIENTED_EDGE ( 'NONE', *, *, #53, .F. ) ;
#204 = ORIENTED_EDGE ( 'NONE', *, *, #61, .F. ) ;
#205 = ORIENTED_EDGE ( 'NONE', *, *, #63, .F. ) ;
#206 = ORIENTED_EDGE ( 'NONE', *, *, #58, .F. ) ;
#207 = ORIENTED_EDGE ( 'NONE', *, *, #54, .F. ) ;
#208 = ORIENTED_EDGE ( 'NONE', *, *, #57, .T. ) ;
#209 = ORIENTED_EDGE ( 'NONE', *, *, #55, .T. ) ;
#210 = ORIENTED_EDGE ( 'NONE', *, *, #65, .F. ) ;
#211 = ORIENTED_EDGE ( 'NONE', *, *, #56, .F. ) ;
ENDSEC;
END-ISO-10303-21;
