ISO-10303-21;
HEADER;
FILE_DESCRIPTION (( 'STEP AP214' ),
    '1' );
FILE_NAME ('Q250D.step',
    '2012-04-20T21:03:23',
    ( '' ),
    ( '' ),
    'SwSTEP 2.0',
    'SolidWorks 2012',
    '' );
FILE_SCHEMA (( 'AUTOMOTIVE_DESIGN' ));
ENDSEC;

DATA;
#1 = DIRECTION ( 'NONE',  ( 0.0000000000000000000, 0.0000000000000000000, 1.000000000000000000 ) ) ;
#2 = DIRECTION ( 'NONE',  ( 1.000000000000000000, 0.0000000000000000000, -0.0000000000000000000 ) ) ;
#3 = PLANE ( 'NONE',  #79 ) ;
#4 = CARTESIAN_POINT ( 'NONE',  ( 0.0000000000000000000, 0.2500000000000000000, 0.0000000000000000000 ) ) ;
#5 = DIRECTION ( 'NONE',  ( 1.000000000000000000, -0.0000000000000000000, 0.0000000000000000000 ) ) ;
#6 = DIRECTION ( 'NONE',  ( 0.0000000000000000000, 0.0000000000000000000, -1.000000000000000000 ) ) ;
#7 = PLANE ( 'NONE',  #89 ) ;
#8 = CARTESIAN_POINT ( 'NONE',  ( 0.0000000000000000000, 0.2500000000000000000, 0.0000000000000000000 ) ) ;
#9 = DIRECTION ( 'NONE',  ( 0.0000000000000000000, -1.000000000000000000, -0.0000000000000000000 ) ) ;
#10 = DIRECTION ( 'NONE',  ( 0.0000000000000000000, 0.0000000000000000000, -1.000000000000000000 ) ) ;
#11 = PLANE ( 'NONE',  #80 ) ;
#12 = CARTESIAN_POINT ( 'NONE',  ( 0.0000000000000000000, 0.0000000000000000000, 0.0000000000000000000 ) ) ;
#13 = DIRECTION ( 'NONE',  ( 0.0000000000000000000, -1.000000000000000000, -0.0000000000000000000 ) ) ;
#14 = DIRECTION ( 'NONE',  ( 0.0000000000000000000, 0.0000000000000000000, -1.000000000000000000 ) ) ;
#15 = LINE ( 'NONE', #16, #158 ) ;
#16 = CARTESIAN_POINT ( 'NONE',  ( 0.0000000000000000000, 0.0000000000000000000, 0.0000000000000000000 ) ) ;
#17 = DIRECTION ( 'NONE',  ( -0.0000000000000000000, -0.0000000000000000000, 1.000000000000000000 ) ) ;
#18 = CARTESIAN_POINT ( 'NONE',  ( 0.0000000000000000000, 0.2500000000000000000, -0.5000000000000000000 ) ) ;
#19 = LINE ( 'NONE', #20, #77 ) ;
#20 = CARTESIAN_POINT ( 'NONE',  ( 0.0000000000000000000, 0.2500000000000000000, -0.5000000000000000000 ) ) ;
#21 = DIRECTION ( 'NONE',  ( -1.000000000000000000, -0.0000000000000000000, -0.0000000000000000000 ) ) ;
#22 = LINE ( 'NONE', #23, #156 ) ;
#23 = CARTESIAN_POINT ( 'NONE',  ( 0.0000000000000000000, 0.0000000000000000000, -0.5000000000000000000 ) ) ;
#24 = DIRECTION ( 'NONE',  ( -1.000000000000000000, -0.0000000000000000000, -0.0000000000000000000 ) ) ;
#25 = LINE ( 'NONE', #26, #92 ) ;
#26 = CARTESIAN_POINT ( 'NONE',  ( 0.4999999999999999400, 0.2500000000000000000, -0.5000000000000000000 ) ) ;
#27 = DIRECTION ( 'NONE',  ( -1.365923996832131600E-016, -0.0000000000000000000, -1.000000000000000000 ) ) ;
#28 = FILL_AREA_STYLE_COLOUR ( '', #49 ) ;
#29 = FILL_AREA_STYLE ('',( #28 ) ) ;
#30 = SURFACE_STYLE_FILL_AREA ( #29 ) ;
#31 = SURFACE_SIDE_STYLE ('',( #30 ) ) ;
#32 = SURFACE_STYLE_USAGE ( .BOTH. , #31 ) ;
#33 = PRESENTATION_STYLE_ASSIGNMENT (( #32 ) ) ;
#34 =( LENGTH_UNIT ( ) NAMED_UNIT ( * ) SI_UNIT ( $, .METRE. ) );
#35 =( CONVERSION_BASED_UNIT ( 'INCH', #94 ) LENGTH_UNIT ( ) NAMED_UNIT ( #103 ) );
#36 =( NAMED_UNIT ( * ) PLANE_ANGLE_UNIT ( ) SI_UNIT ( $, .RADIAN. ) );
#37 =( NAMED_UNIT ( * ) SI_UNIT ( $, .STERADIAN. ) SOLID_ANGLE_UNIT ( ) );
#38 = CARTESIAN_POINT ( 'NONE',  ( 0.4999999999999999400, 0.2500000000000000000, -0.5000000000000000000 ) ) ;
#39 = CARTESIAN_POINT ( 'NONE',  ( 0.0000000000000000000, 0.0000000000000000000, -0.5000000000000000000 ) ) ;
#40 = CARTESIAN_POINT ( 'NONE',  ( 0.0000000000000000000, 0.2500000000000000000, 0.0000000000000000000 ) ) ;
#41 = CARTESIAN_POINT ( 'NONE',  ( 0.5000000000000000000, 0.2500000000000000000, -1.530808498934193000E-017 ) ) ;
#42 = CARTESIAN_POINT ( 'NONE',  ( 0.0000000000000000000, 0.0000000000000000000, 0.0000000000000000000 ) ) ;
#43 = CARTESIAN_POINT ( 'NONE',  ( 0.4999999999999999400, 0.0000000000000000000, -0.5000000000000000000 ) ) ;
#44 = CARTESIAN_POINT ( 'NONE',  ( 0.5000000000000000000, 0.0000000000000000000, -1.530808498934193000E-017 ) ) ;
#45 =( LENGTH_UNIT ( ) NAMED_UNIT ( * ) SI_UNIT ( $, .METRE. ) );
#46 =( CONVERSION_BASED_UNIT ( 'INCH', #95 ) LENGTH_UNIT ( ) NAMED_UNIT ( #104 ) );
#47 =( NAMED_UNIT ( * ) PLANE_ANGLE_UNIT ( ) SI_UNIT ( $, .RADIAN. ) );
#48 =( NAMED_UNIT ( * ) SI_UNIT ( $, .STERADIAN. ) SOLID_ANGLE_UNIT ( ) );
#49 = COLOUR_RGB ( '',0.5686274509803921400, 0.5686274509803921400, 0.5882352941176470800 ) ;
#50 = PRODUCT_DEFINITION ( 'UNKNOWN', '', #101, #108 ) ;
#51 = COLOUR_RGB ( '',0.5686274509803921400, 0.5686274509803921400, 0.5882352941176470800 ) ;
#52 = PRODUCT_RELATED_PRODUCT_CATEGORY ( 'part', '', ( #102 ) ) ;
#53 = EDGE_CURVE ( 'NONE', #190, #199, #115, .T. ) ;
#54 = EDGE_CURVE ( 'NONE', #203, #202, #119, .T. ) ;
#55 = EDGE_CURVE ( 'NONE', #191, #202, #122, .T. ) ;
#56 = EDGE_CURVE ( 'NONE', #199, #201, #125, .T. ) ;
#57 = EDGE_CURVE ( 'NONE', #199, #200, #128, .T. ) ;
#58 = EDGE_CURVE ( 'NONE', #201, #203, #131, .T. ) ;
#59 = EDGE_CURVE ( 'NONE', #200, #203, #134, .T. ) ;
#60 = ADVANCED_FACE ( 'NONE', ( #150 ), #118, .F. ) ;
#61 = ADVANCED_FACE ( 'NONE', ( #78 ), #140, .F. ) ;
#62 = EDGE_CURVE ( 'NONE', #190, #192, #144, .T. ) ;
#63 = ADVANCED_FACE ( 'NONE', ( #84 ), #147, .F. ) ;
#64 = ADVANCED_FACE ( 'NONE', ( #83 ), #3, .F. ) ;
#65 = ADVANCED_FACE ( 'NONE', ( #74 ), #7, .F. ) ;
#66 = ADVANCED_FACE ( 'NONE', ( #90 ), #11, .T. ) ;
#67 = EDGE_CURVE ( 'NONE', #192, #201, #15, .T. ) ;
#68 = EDGE_CURVE ( 'NONE', #191, #190, #19, .T. ) ;
#69 = EDGE_CURVE ( 'NONE', #202, #192, #22, .T. ) ;
#70 = EDGE_CURVE ( 'NONE', #200, #191, #25, .T. ) ;
#71 = APPLICATION_CONTEXT ( 'automotive_design' ) ;
#72 = APPLICATION_CONTEXT ( 'automotive_design' ) ;
#73 = VECTOR ( 'NONE', #136, 39.37007874015748100 ) ;
#74 = FACE_OUTER_BOUND ( 'NONE', #180, .T. ) ;
#75 = VECTOR ( 'NONE', #130, 39.37007874015748100 ) ;
#76 = AXIS2_PLACEMENT_3D ( 'NONE', #137, #138, #139 ) ;
#77 = VECTOR ( 'NONE', #21, 39.37007874015748100 ) ;
#78 = FACE_OUTER_BOUND ( 'NONE', #176, .T. ) ;
#79 = AXIS2_PLACEMENT_3D ( 'NONE', #4, #5, #6 ) ;
#80 = AXIS2_PLACEMENT_3D ( 'NONE', #12, #13, #14 ) ;
#81 = VECTOR ( 'NONE', #146, 39.37007874015748100 ) ;
#82 = AXIS2_PLACEMENT_3D ( 'NONE', #148, #1, #2 ) ;
#83 = FACE_OUTER_BOUND ( 'NONE', #179, .T. ) ;
#84 = FACE_OUTER_BOUND ( 'NONE', #177, .T. ) ;
#85 = VECTOR ( 'NONE', #133, 39.37007874015748100 ) ;
#86 =( GEOMETRIC_REPRESENTATION_CONTEXT ( 3 ) GLOBAL_UNCERTAINTY_ASSIGNED_CONTEXT ( ( #111 ) ) GLOBAL_UNIT_ASSIGNED_CONTEXT ( ( #35, #36, #37 ) ) REPRESENTATION_CONTEXT ( 'NONE', 'WORKASPACE' ) );
#87 =( GEOMETRIC_REPRESENTATION_CONTEXT ( 3 ) GLOBAL_UNCERTAINTY_ASSIGNED_CONTEXT ( ( #110 ) ) GLOBAL_UNIT_ASSIGNED_CONTEXT ( ( #46, #47, #48 ) ) REPRESENTATION_CONTEXT ( 'NONE', 'WORKASPACE' ) );
#88 =( GEOMETRIC_REPRESENTATION_CONTEXT ( 3 ) GLOBAL_UNCERTAINTY_ASSIGNED_CONTEXT ( ( #109 ) ) GLOBAL_UNIT_ASSIGNED_CONTEXT ( ( #166, #167, #168 ) ) REPRESENTATION_CONTEXT ( 'NONE', 'WORKASPACE' ) );
#89 = AXIS2_PLACEMENT_3D ( 'NONE', #8, #9, #10 ) ;
#90 = FACE_OUTER_BOUND ( 'NONE', #181, .T. ) ;
#91 = PRESENTATION_LAYER_ASSIGNMENT (  '', '', ( #149 ) ) ;
#92 = VECTOR ( 'NONE', #27, 39.37007874015748100 ) ;
#93 = MECHANICAL_DESIGN_GEOMETRIC_PRESENTATION_REPRESENTATION (  '', ( #149 ), #86 ) ;
#94 = LENGTH_MEASURE_WITH_UNIT ( LENGTH_MEASURE( 0.02539999999999999900 ), #34 );
#95 = LENGTH_MEASURE_WITH_UNIT ( LENGTH_MEASURE( 0.02539999999999999900 ), #45 );
#96 = STYLED_ITEM ( 'NONE', ( #164 ), #112 ) ;
#97 = PRESENTATION_LAYER_ASSIGNMENT (  '', '', ( #96 ) ) ;
#98 = MECHANICAL_DESIGN_GEOMETRIC_PRESENTATION_REPRESENTATION (  '', ( #96 ), #88 ) ;
#99 = LENGTH_MEASURE_WITH_UNIT ( LENGTH_MEASURE( 0.02539999999999999900 ), #165 );
#100 = AXIS2_PLACEMENT_3D ( 'NONE', #169, #170, #171 ) ;
#101 = PRODUCT_DEFINITION_FORMATION_WITH_SPECIFIED_SOURCE ( 'ANY', '', #102, .NOT_KNOWN. ) ;
#102 = PRODUCT ( 'Q250D', 'Q250D', '', ( #174 ) ) ;
#103 = DIMENSIONAL_EXPONENTS ( 1.000000000000000000, 0.0000000000000000000, 0.0000000000000000000, 0.0000000000000000000, 0.0000000000000000000, 0.0000000000000000000, 0.0000000000000000000 ) ;
#104 = DIMENSIONAL_EXPONENTS ( 1.000000000000000000, 0.0000000000000000000, 0.0000000000000000000, 0.0000000000000000000, 0.0000000000000000000, 0.0000000000000000000, 0.0000000000000000000 ) ;
#105 = DIMENSIONAL_EXPONENTS ( 1.000000000000000000, 0.0000000000000000000, 0.0000000000000000000, 0.0000000000000000000, 0.0000000000000000000, 0.0000000000000000000, 0.0000000000000000000 ) ;
#106 = MANIFOLD_SOLID_BREP ( 'Boss-Extrude1', #151 ) ;
#107 = PRODUCT_DEFINITION_SHAPE ( 'NONE', 'NONE',  #50 ) ;
#108 = PRODUCT_DEFINITION_CONTEXT ( 'detailed design', #72, 'design' ) ;
#109 = UNCERTAINTY_MEASURE_WITH_UNIT (LENGTH_MEASURE( 1.000000000000000100E-005 ), #166, 'distance_accuracy_value', 'NONE');
#110 = UNCERTAINTY_MEASURE_WITH_UNIT (LENGTH_MEASURE( 1.000000000000000100E-005 ), #46, 'distance_accuracy_value', 'NONE');
#111 = UNCERTAINTY_MEASURE_WITH_UNIT (LENGTH_MEASURE( 1.000000000000000100E-005 ), #35, 'distance_accuracy_value', 'NONE');
#112 = ADVANCED_BREP_SHAPE_REPRESENTATION ( 'Q250D', ( #106, #100 ), #87 ) ;
#113 = ORIENTED_EDGE ( 'NONE', *, *, #67, .F. ) ;
#114 = ORIENTED_EDGE ( 'NONE', *, *, #69, .F. ) ;
#115 = LINE ( 'NONE', #116, #153 ) ;
#116 = CARTESIAN_POINT ( 'NONE',  ( 0.0000000000000000000, 0.2500000000000000000, 0.0000000000000000000 ) ) ;
#117 = DIRECTION ( 'NONE',  ( -0.0000000000000000000, -0.0000000000000000000, 1.000000000000000000 ) ) ;
#118 = PLANE ( 'NONE',  #76 ) ;
#119 = LINE ( 'NONE', #120, #154 ) ;
#120 = CARTESIAN_POINT ( 'NONE',  ( 0.4999999999999999400, 0.0000000000000000000, -0.5000000000000000000 ) ) ;
#121 = DIRECTION ( 'NONE',  ( -1.365923996832131600E-016, -0.0000000000000000000, -1.000000000000000000 ) ) ;
#122 = LINE ( 'NONE', #123, #155 ) ;
#123 = CARTESIAN_POINT ( 'NONE',  ( 0.4999999999999999400, 0.2500000000000000000, -0.5000000000000000000 ) ) ;
#124 = DIRECTION ( 'NONE',  ( -0.0000000000000000000, -1.000000000000000000, -0.0000000000000000000 ) ) ;
#125 = LINE ( 'NONE', #126, #157 ) ;
#126 = CARTESIAN_POINT ( 'NONE',  ( 0.0000000000000000000, 0.2500000000000000000, 0.0000000000000000000 ) ) ;
#127 = DIRECTION ( 'NONE',  ( -0.0000000000000000000, -1.000000000000000000, -0.0000000000000000000 ) ) ;
#128 = LINE ( 'NONE', #129, #75 ) ;
#129 = CARTESIAN_POINT ( 'NONE',  ( 0.5000000000000000000, 0.2500000000000000000, -1.530808498934193000E-017 ) ) ;
#130 = DIRECTION ( 'NONE',  ( 1.000000000000000000, -0.0000000000000000000, -3.061616997868386100E-017 ) ) ;
#131 = LINE ( 'NONE', #132, #85 ) ;
#132 = CARTESIAN_POINT ( 'NONE',  ( 0.5000000000000000000, 0.0000000000000000000, -1.530808498934193000E-017 ) ) ;
#133 = DIRECTION ( 'NONE',  ( 1.000000000000000000, -0.0000000000000000000, -3.061616997868386100E-017 ) ) ;
#134 = LINE ( 'NONE', #135, #73 ) ;
#135 = CARTESIAN_POINT ( 'NONE',  ( 0.5000000000000000000, 0.2500000000000000000, -1.530808498934193000E-017 ) ) ;
#136 = DIRECTION ( 'NONE',  ( -0.0000000000000000000, -1.000000000000000000, -0.0000000000000000000 ) ) ;
#137 = CARTESIAN_POINT ( 'NONE',  ( 0.5000000000000000000, 0.2500000000000000000, -1.530808498934193000E-017 ) ) ;
#138 = DIRECTION ( 'NONE',  ( -3.061616997868386100E-017, 0.0000000000000000000, -1.000000000000000000 ) ) ;
#139 = DIRECTION ( 'NONE',  ( -1.000000000000000000, 0.0000000000000000000, 3.061616997868386100E-017 ) ) ;
#140 = PLANE ( 'NONE',  #152 ) ;
#141 = CARTESIAN_POINT ( 'NONE',  ( 0.4999999999999999400, 0.2500000000000000000, -0.5000000000000000000 ) ) ;
#142 = DIRECTION ( 'NONE',  ( -1.000000000000000000, 0.0000000000000000000, 1.365923996832131600E-016 ) ) ;
#143 = DIRECTION ( 'NONE',  ( 1.365923996832131600E-016, 0.0000000000000000000, 1.000000000000000000 ) ) ;
#144 = LINE ( 'NONE', #145, #81 ) ;
#145 = CARTESIAN_POINT ( 'NONE',  ( 0.0000000000000000000, 0.2500000000000000000, -0.5000000000000000000 ) ) ;
#146 = DIRECTION ( 'NONE',  ( -0.0000000000000000000, -1.000000000000000000, -0.0000000000000000000 ) ) ;
#147 = PLANE ( 'NONE',  #82 ) ;
#148 = CARTESIAN_POINT ( 'NONE',  ( 0.0000000000000000000, 0.2500000000000000000, -0.5000000000000000000 ) ) ;
#149 = STYLED_ITEM ( 'NONE', ( #33 ), #106 ) ;
#150 = FACE_OUTER_BOUND ( 'NONE', #178, .T. ) ;
#151 = CLOSED_SHELL ( 'NONE', ( #60, #61, #63, #64, #65, #66 ) ) ;
#152 = AXIS2_PLACEMENT_3D ( 'NONE', #141, #142, #143 ) ;
#153 = VECTOR ( 'NONE', #117, 39.37007874015748100 ) ;
#154 = VECTOR ( 'NONE', #121, 39.37007874015748100 ) ;
#155 = VECTOR ( 'NONE', #124, 39.37007874015748100 ) ;
#156 = VECTOR ( 'NONE', #24, 39.37007874015748100 ) ;
#157 = VECTOR ( 'NONE', #127, 39.37007874015748100 ) ;
#158 = VECTOR ( 'NONE', #17, 39.37007874015748100 ) ;
#159 = FILL_AREA_STYLE_COLOUR ( '', #51 ) ;
#160 = FILL_AREA_STYLE ('',( #159 ) ) ;
#161 = SURFACE_STYLE_FILL_AREA ( #160 ) ;
#162 = SURFACE_SIDE_STYLE ('',( #161 ) ) ;
#163 = SURFACE_STYLE_USAGE ( .BOTH. , #162 ) ;
#164 = PRESENTATION_STYLE_ASSIGNMENT (( #163 ) ) ;
#165 =( LENGTH_UNIT ( ) NAMED_UNIT ( * ) SI_UNIT ( $, .METRE. ) );
#166 =( CONVERSION_BASED_UNIT ( 'INCH', #99 ) LENGTH_UNIT ( ) NAMED_UNIT ( #105 ) );
#167 =( NAMED_UNIT ( * ) PLANE_ANGLE_UNIT ( ) SI_UNIT ( $, .RADIAN. ) );
#168 =( NAMED_UNIT ( * ) SI_UNIT ( $, .STERADIAN. ) SOLID_ANGLE_UNIT ( ) );
#169 = CARTESIAN_POINT ( 'NONE',  ( 0.0000000000000000000, 0.0000000000000000000, 0.0000000000000000000 ) ) ;
#170 = DIRECTION ( 'NONE',  ( 0.0000000000000000000, 0.0000000000000000000, 1.000000000000000000 ) ) ;
#171 = DIRECTION ( 'NONE',  ( 1.000000000000000000, 0.0000000000000000000, 0.0000000000000000000 ) ) ;
#172 = SHAPE_DEFINITION_REPRESENTATION ( #107, #112 ) ;
#173 = APPLICATION_PROTOCOL_DEFINITION ( 'draft international standard', 'automotive_design', 1998, #71 ) ;
#174 = PRODUCT_CONTEXT ( 'NONE', #71, 'mechanical' ) ;
#175 = APPLICATION_PROTOCOL_DEFINITION ( 'draft international standard', 'automotive_design', 1998, #72 ) ;
#176 = EDGE_LOOP ( 'NONE', ( #196, #198, #197, #182 ) ) ;
#177 = EDGE_LOOP ( 'NONE', ( #183, #185, #184, #186 ) ) ;
#178 = EDGE_LOOP ( 'NONE', ( #189, #194, #193, #195 ) ) ;
#179 = EDGE_LOOP ( 'NONE', ( #188, #204, #187, #206 ) ) ;
#180 = EDGE_LOOP ( 'NONE', ( #207, #208, #209, #205 ) ) ;
#181 = EDGE_LOOP ( 'NONE', ( #211, #113, #114, #210 ) ) ;
#182 = ORIENTED_EDGE ( 'NONE', *, *, #59, .T. ) ;
#183 = ORIENTED_EDGE ( 'NONE', *, *, #69, .T. ) ;
#184 = ORIENTED_EDGE ( 'NONE', *, *, #68, .F. ) ;
#185 = ORIENTED_EDGE ( 'NONE', *, *, #62, .F. ) ;
#186 = ORIENTED_EDGE ( 'NONE', *, *, #55, .T. ) ;
#187 = ORIENTED_EDGE ( 'NONE', *, *, #53, .F. ) ;
#188 = ORIENTED_EDGE ( 'NONE', *, *, #67, .T. ) ;
#189 = ORIENTED_EDGE ( 'NONE', *, *, #58, .T. ) ;
#190 = VERTEX_POINT ( 'NONE', #18 ) ;
#191 = VERTEX_POINT ( 'NONE', #38 ) ;
#192 = VERTEX_POINT ( 'NONE', #39 ) ;
#193 = ORIENTED_EDGE ( 'NONE', *, *, #57, .F. ) ;
#194 = ORIENTED_EDGE ( 'NONE', *, *, #59, .F. ) ;
#195 = ORIENTED_EDGE ( 'NONE', *, *, #56, .T. ) ;
#196 = ORIENTED_EDGE ( 'NONE', *, *, #54, .T. ) ;
#197 = ORIENTED_EDGE ( 'NONE', *, *, #70, .F. ) ;
#198 = ORIENTED_EDGE ( 'NONE', *, *, #55, .F. ) ;
#199 = VERTEX_POINT ( 'NONE', #40 ) ;
#200 = VERTEX_POINT ( 'NONE', #41 ) ;
#201 = VERTEX_POINT ( 'NONE', #42 ) ;
#202 = VERTEX_POINT ( 'NONE', #43 ) ;
#203 = VERTEX_POINT ( 'NONE', #44 ) ;
#204 = ORIENTED_EDGE ( 'NONE', *, *, #56, .F. ) ;
#205 = ORIENTED_EDGE ( 'NONE', *, *, #53, .T. ) ;
#206 = ORIENTED_EDGE ( 'NONE', *, *, #62, .T. ) ;
#207 = ORIENTED_EDGE ( 'NONE', *, *, #57, .T. ) ;
#208 = ORIENTED_EDGE ( 'NONE', *, *, #70, .T. ) ;
#209 = ORIENTED_EDGE ( 'NONE', *, *, #68, .T. ) ;
#210 = ORIENTED_EDGE ( 'NONE', *, *, #54, .F. ) ;
#211 = ORIENTED_EDGE ( 'NONE', *, *, #58, .F. ) ;
ENDSEC;
END-ISO-10303-21;
