ISO-10303-21;
HEADER;
FILE_DESCRIPTION (( 'STEP AP214' ),
    '1' );
FILE_NAME ('Q250H.step',
    '2012-04-20T21:03:25',
    ( '' ),
    ( '' ),
    'SwSTEP 2.0',
    'SolidWorks 2012',
    '' );
FILE_SCHEMA (( 'AUTOMOTIVE_DESIGN' ));
ENDSEC;

DATA;
#1 =( GEOMETRIC_REPRESENTATION_CONTEXT ( 3 ) GLOBAL_UNCERTAINTY_ASSIGNED_CONTEXT ( ( #148 ) ) GLOBAL_UNIT_ASSIGNED_CONTEXT ( ( #158, #159, #160 ) ) REPRESENTATION_CONTEXT ( 'NONE', 'WORKASPACE' ) );
#2 =( GEOMETRIC_REPRESENTATION_CONTEXT ( 3 ) GLOBAL_UNCERTAINTY_ASSIGNED_CONTEXT ( ( #151 ) ) GLOBAL_UNIT_ASSIGNED_CONTEXT ( ( #162, #163, #164 ) ) REPRESENTATION_CONTEXT ( 'NONE', 'WORKASPACE' ) );
#3 =( GEOMETRIC_REPRESENTATION_CONTEXT ( 3 ) GLOBAL_UNCERTAINTY_ASSIGNED_CONTEXT ( ( #150 ) ) GLOBAL_UNIT_ASSIGNED_CONTEXT ( ( #12, #13, #14 ) ) REPRESENTATION_CONTEXT ( 'NONE', 'WORKASPACE' ) );
#4 = APPLICATION_PROTOCOL_DEFINITION ( 'draft international standard', 'automotive_design', 1998, #174 ) ;
#5 = FILL_AREA_STYLE_COLOUR ( '', #53 ) ;
#6 = FILL_AREA_STYLE ('',( #5 ) ) ;
#7 = SURFACE_STYLE_FILL_AREA ( #6 ) ;
#8 = SURFACE_SIDE_STYLE ('',( #7 ) ) ;
#9 = SURFACE_STYLE_USAGE ( .BOTH. , #8 ) ;
#10 = PRESENTATION_STYLE_ASSIGNMENT (( #9 ) ) ;
#11 =( LENGTH_UNIT ( ) NAMED_UNIT ( * ) SI_UNIT ( $, .METRE. ) );
#12 =( CONVERSION_BASED_UNIT ( 'INCH', #36 ) LENGTH_UNIT ( ) NAMED_UNIT ( #141 ) );
#13 =( NAMED_UNIT ( * ) PLANE_ANGLE_UNIT ( ) SI_UNIT ( $, .RADIAN. ) );
#14 =( NAMED_UNIT ( * ) SI_UNIT ( $, .STERADIAN. ) SOLID_ANGLE_UNIT ( ) );
#15 = CARTESIAN_POINT ( 'NONE',  ( 0.0000000000000000000, 0.0000000000000000000, 0.0000000000000000000 ) ) ;
#16 = DIRECTION ( 'NONE',  ( 0.0000000000000000000, 0.0000000000000000000, 1.000000000000000000 ) ) ;
#17 = DIRECTION ( 'NONE',  ( 1.000000000000000000, 0.0000000000000000000, 0.0000000000000000000 ) ) ;
#18 = SHAPE_DEFINITION_REPRESENTATION ( #145, #149 ) ;
#19 = PRODUCT_CONTEXT ( 'NONE', #174, 'mechanical' ) ;
#20 = APPLICATION_PROTOCOL_DEFINITION ( 'draft international standard', 'automotive_design', 1998, #175 ) ;
#21 = AXIS2_PLACEMENT_3D ( 'NONE', #180, #181, #182 ) ;
#22 = FACE_OUTER_BOUND ( 'NONE', #96, .T. ) ;
#23 = CLOSED_SHELL ( 'NONE', ( #61, #62, #63, #64, #45, #65 ) ) ;
#24 = AXIS2_PLACEMENT_3D ( 'NONE', #124, #125, #126 ) ;
#25 = FACE_OUTER_BOUND ( 'NONE', #94, .T. ) ;
#26 = VECTOR ( 'NONE', #185, 39.37007874015748100 ) ;
#27 = VECTOR ( 'NONE', #189, 39.37007874015748100 ) ;
#28 = VECTOR ( 'NONE', #192, 39.37007874015748100 ) ;
#29 = PRESENTATION_LAYER_ASSIGNMENT (  '', '', ( #68 ) ) ;
#30 = MECHANICAL_DESIGN_GEOMETRIC_PRESENTATION_REPRESENTATION (  '', ( #68 ), #1 ) ;
#31 = LENGTH_MEASURE_WITH_UNIT ( LENGTH_MEASURE( 0.02539999999999999900 ), #157 );
#32 = LENGTH_MEASURE_WITH_UNIT ( LENGTH_MEASURE( 0.02539999999999999900 ), #161 );
#33 = STYLED_ITEM ( 'NONE', ( #10 ), #149 ) ;
#34 = PRESENTATION_LAYER_ASSIGNMENT (  '', '', ( #33 ) ) ;
#35 = MECHANICAL_DESIGN_GEOMETRIC_PRESENTATION_REPRESENTATION (  '', ( #33 ), #3 ) ;
#36 = LENGTH_MEASURE_WITH_UNIT ( LENGTH_MEASURE( 0.02539999999999999900 ), #11 );
#37 = AXIS2_PLACEMENT_3D ( 'NONE', #15, #16, #17 ) ;
#38 = PRODUCT_DEFINITION_FORMATION_WITH_SPECIFIED_SOURCE ( 'ANY', '', #142, .NOT_KNOWN. ) ;
#39 = AXIS2_PLACEMENT_3D ( 'NONE', #120, #121, #122 ) ;
#40 = FACE_OUTER_BOUND ( 'NONE', #92, .T. ) ;
#41 = AXIS2_PLACEMENT_3D ( 'NONE', #112, #113, #114 ) ;
#42 = VECTOR ( 'NONE', #111, 39.37007874015748100 ) ;
#43 = AXIS2_PLACEMENT_3D ( 'NONE', #128, #129, #130 ) ;
#44 = COLOUR_RGB ( '',0.5686274509803921400, 0.5686274509803921400, 0.5882352941176470800 ) ;
#45 = ADVANCED_FACE ( 'NONE', ( #22 ), #179, .F. ) ;
#46 = PRODUCT_RELATED_PRODUCT_CATEGORY ( 'part', '', ( #142 ) ) ;
#47 = PRODUCT_DEFINITION ( 'UNKNOWN', '', #38, #146 ) ;
#48 = EDGE_CURVE ( 'NONE', #91, #72, #183, .T. ) ;
#49 = EDGE_CURVE ( 'NONE', #75, #69, #187, .T. ) ;
#50 = EDGE_CURVE ( 'NONE', #74, #91, #190, .T. ) ;
#51 = EDGE_CURVE ( 'NONE', #73, #75, #193, .T. ) ;
#52 = EDGE_CURVE ( 'NONE', #91, #75, #196, .T. ) ;
#53 = COLOUR_RGB ( '',0.5686274509803921400, 0.5686274509803921400, 0.5882352941176470800 ) ;
#54 = EDGE_CURVE ( 'NONE', #71, #74, #199, .T. ) ;
#55 = EDGE_CURVE ( 'NONE', #70, #73, #202, .T. ) ;
#56 = EDGE_CURVE ( 'NONE', #74, #73, #205, .T. ) ;
#57 = EDGE_CURVE ( 'NONE', #72, #69, #208, .T. ) ;
#58 = EDGE_CURVE ( 'NONE', #72, #71, #211, .T. ) ;
#59 = EDGE_CURVE ( 'NONE', #69, #70, #106, .T. ) ;
#60 = EDGE_CURVE ( 'NONE', #71, #70, #109, .T. ) ;
#61 = ADVANCED_FACE ( 'NONE', ( #25 ), #186, .F. ) ;
#62 = ADVANCED_FACE ( 'NONE', ( #40 ), #115, .F. ) ;
#63 = ADVANCED_FACE ( 'NONE', ( #67 ), #119, .F. ) ;
#64 = ADVANCED_FACE ( 'NONE', ( #171 ), #123, .F. ) ;
#65 = ADVANCED_FACE ( 'NONE', ( #144 ), #127, .T. ) ;
#66 = AXIS2_PLACEMENT_3D ( 'NONE', #116, #117, #118 ) ;
#67 = FACE_OUTER_BOUND ( 'NONE', #93, .T. ) ;
#68 = STYLED_ITEM ( 'NONE', ( #156 ), #147 ) ;
#69 = VERTEX_POINT ( 'NONE', #131 ) ;
#70 = VERTEX_POINT ( 'NONE', #132 ) ;
#71 = VERTEX_POINT ( 'NONE', #133 ) ;
#72 = VERTEX_POINT ( 'NONE', #134 ) ;
#73 = VERTEX_POINT ( 'NONE', #135 ) ;
#74 = VERTEX_POINT ( 'NONE', #136 ) ;
#75 = VERTEX_POINT ( 'NONE', #137 ) ;
#76 = EDGE_LOOP ( 'NONE', ( #176, #177, #178, #103 ) ) ;
#77 = ORIENTED_EDGE ( 'NONE', *, *, #59, .T. ) ;
#78 = ORIENTED_EDGE ( 'NONE', *, *, #58, .F. ) ;
#79 = ORIENTED_EDGE ( 'NONE', *, *, #60, .F. ) ;
#80 = ORIENTED_EDGE ( 'NONE', *, *, #57, .T. ) ;
#81 = ORIENTED_EDGE ( 'NONE', *, *, #55, .T. ) ;
#82 = ORIENTED_EDGE ( 'NONE', *, *, #54, .F. ) ;
#83 = ORIENTED_EDGE ( 'NONE', *, *, #56, .F. ) ;
#84 = ORIENTED_EDGE ( 'NONE', *, *, #60, .T. ) ;
#85 = ORIENTED_EDGE ( 'NONE', *, *, #51, .T. ) ;
#86 = ORIENTED_EDGE ( 'NONE', *, *, #50, .F. ) ;
#87 = ORIENTED_EDGE ( 'NONE', *, *, #52, .F. ) ;
#88 = ORIENTED_EDGE ( 'NONE', *, *, #56, .T. ) ;
#89 = ORIENTED_EDGE ( 'NONE', *, *, #48, .F. ) ;
#90 = ORIENTED_EDGE ( 'NONE', *, *, #49, .T. ) ;
#91 = VERTEX_POINT ( 'NONE', #138 ) ;
#92 = EDGE_LOOP ( 'NONE', ( #81, #83, #82, #84 ) ) ;
#93 = EDGE_LOOP ( 'NONE', ( #85, #87, #86, #88 ) ) ;
#94 = EDGE_LOOP ( 'NONE', ( #77, #79, #78, #80 ) ) ;
#95 = EDGE_LOOP ( 'NONE', ( #90, #97, #89, #99 ) ) ;
#96 = EDGE_LOOP ( 'NONE', ( #100, #101, #102, #98 ) ) ;
#97 = ORIENTED_EDGE ( 'NONE', *, *, #57, .F. ) ;
#98 = ORIENTED_EDGE ( 'NONE', *, *, #48, .T. ) ;
#99 = ORIENTED_EDGE ( 'NONE', *, *, #52, .T. ) ;
#100 = ORIENTED_EDGE ( 'NONE', *, *, #58, .T. ) ;
#101 = ORIENTED_EDGE ( 'NONE', *, *, #54, .T. ) ;
#102 = ORIENTED_EDGE ( 'NONE', *, *, #50, .T. ) ;
#103 = ORIENTED_EDGE ( 'NONE', *, *, #55, .F. ) ;
#104 = CARTESIAN_POINT ( 'NONE',  ( 1.000000000000000000, 0.2500000000000000000, -6.123233995736766000E-017 ) ) ;
#105 = DIRECTION ( 'NONE',  ( 1.000000000000000000, -0.0000000000000000000, -6.123233995736766000E-017 ) ) ;
#106 = LINE ( 'NONE', #107, #173 ) ;
#107 = CARTESIAN_POINT ( 'NONE',  ( 1.000000000000000000, 0.0000000000000000000, -6.123233995736766000E-017 ) ) ;
#108 = DIRECTION ( 'NONE',  ( 1.000000000000000000, -0.0000000000000000000, -6.123233995736766000E-017 ) ) ;
#109 = LINE ( 'NONE', #110, #42 ) ;
#110 = CARTESIAN_POINT ( 'NONE',  ( 1.000000000000000000, 0.2500000000000000000, -6.123233995736766000E-017 ) ) ;
#111 = DIRECTION ( 'NONE',  ( -0.0000000000000000000, -1.000000000000000000, -0.0000000000000000000 ) ) ;
#112 = CARTESIAN_POINT ( 'NONE',  ( 1.000000000000000000, 0.2500000000000000000, -6.123233995736766000E-017 ) ) ;
#113 = DIRECTION ( 'NONE',  ( -6.123233995736766000E-017, 0.0000000000000000000, -1.000000000000000000 ) ) ;
#114 = DIRECTION ( 'NONE',  ( -1.000000000000000000, 0.0000000000000000000, 6.123233995736766000E-017 ) ) ;
#115 = PLANE ( 'NONE',  #66 ) ;
#116 = CARTESIAN_POINT ( 'NONE',  ( 0.9999999999999996700, 0.2500000000000000000, -1.000000000000000000 ) ) ;
#117 = DIRECTION ( 'NONE',  ( -1.000000000000000000, 0.0000000000000000000, 2.731847993664263200E-016 ) ) ;
#118 = DIRECTION ( 'NONE',  ( 2.731847993664263200E-016, 0.0000000000000000000, 1.000000000000000000 ) ) ;
#119 = PLANE ( 'NONE',  #39 ) ;
#120 = CARTESIAN_POINT ( 'NONE',  ( 0.0000000000000000000, 0.2500000000000000000, -1.000000000000000000 ) ) ;
#121 = DIRECTION ( 'NONE',  ( 0.0000000000000000000, 0.0000000000000000000, 1.000000000000000000 ) ) ;
#122 = DIRECTION ( 'NONE',  ( 1.000000000000000000, 0.0000000000000000000, -0.0000000000000000000 ) ) ;
#123 = PLANE ( 'NONE',  #24 ) ;
#124 = CARTESIAN_POINT ( 'NONE',  ( 0.0000000000000000000, 0.2500000000000000000, 0.0000000000000000000 ) ) ;
#125 = DIRECTION ( 'NONE',  ( 1.000000000000000000, -0.0000000000000000000, 0.0000000000000000000 ) ) ;
#126 = DIRECTION ( 'NONE',  ( 0.0000000000000000000, 0.0000000000000000000, -1.000000000000000000 ) ) ;
#127 = PLANE ( 'NONE',  #43 ) ;
#128 = CARTESIAN_POINT ( 'NONE',  ( 0.0000000000000000000, 0.0000000000000000000, 0.0000000000000000000 ) ) ;
#129 = DIRECTION ( 'NONE',  ( 0.0000000000000000000, -1.000000000000000000, -0.0000000000000000000 ) ) ;
#130 = DIRECTION ( 'NONE',  ( 0.0000000000000000000, 0.0000000000000000000, -1.000000000000000000 ) ) ;
#131 = CARTESIAN_POINT ( 'NONE',  ( 0.0000000000000000000, 0.0000000000000000000, 0.0000000000000000000 ) ) ;
#132 = CARTESIAN_POINT ( 'NONE',  ( 1.000000000000000000, 0.0000000000000000000, -6.123233995736766000E-017 ) ) ;
#133 = CARTESIAN_POINT ( 'NONE',  ( 1.000000000000000000, 0.2500000000000000000, -6.123233995736766000E-017 ) ) ;
#134 = CARTESIAN_POINT ( 'NONE',  ( 0.0000000000000000000, 0.2500000000000000000, 0.0000000000000000000 ) ) ;
#135 = CARTESIAN_POINT ( 'NONE',  ( 0.9999999999999996700, 0.0000000000000000000, -1.000000000000000000 ) ) ;
#136 = CARTESIAN_POINT ( 'NONE',  ( 0.9999999999999996700, 0.2500000000000000000, -1.000000000000000000 ) ) ;
#137 = CARTESIAN_POINT ( 'NONE',  ( 0.0000000000000000000, 0.0000000000000000000, -1.000000000000000000 ) ) ;
#138 = CARTESIAN_POINT ( 'NONE',  ( 0.0000000000000000000, 0.2500000000000000000, -1.000000000000000000 ) ) ;
#139 = FILL_AREA_STYLE_COLOUR ( '', #44 ) ;
#140 = DIMENSIONAL_EXPONENTS ( 1.000000000000000000, 0.0000000000000000000, 0.0000000000000000000, 0.0000000000000000000, 0.0000000000000000000, 0.0000000000000000000, 0.0000000000000000000 ) ;
#141 = DIMENSIONAL_EXPONENTS ( 1.000000000000000000, 0.0000000000000000000, 0.0000000000000000000, 0.0000000000000000000, 0.0000000000000000000, 0.0000000000000000000, 0.0000000000000000000 ) ;
#142 = PRODUCT ( 'Q250H', 'Q250H', '', ( #19 ) ) ;
#143 = DIMENSIONAL_EXPONENTS ( 1.000000000000000000, 0.0000000000000000000, 0.0000000000000000000, 0.0000000000000000000, 0.0000000000000000000, 0.0000000000000000000, 0.0000000000000000000 ) ;
#144 = FACE_OUTER_BOUND ( 'NONE', #76, .T. ) ;
#145 = PRODUCT_DEFINITION_SHAPE ( 'NONE', 'NONE',  #47 ) ;
#146 = PRODUCT_DEFINITION_CONTEXT ( 'detailed design', #175, 'design' ) ;
#147 = MANIFOLD_SOLID_BREP ( 'Boss-Extrude1', #23 ) ;
#148 = UNCERTAINTY_MEASURE_WITH_UNIT (LENGTH_MEASURE( 1.000000000000000100E-005 ), #158, 'distance_accuracy_value', 'NONE');
#149 = ADVANCED_BREP_SHAPE_REPRESENTATION ( 'Q250H', ( #147, #37 ), #2 ) ;
#150 = UNCERTAINTY_MEASURE_WITH_UNIT (LENGTH_MEASURE( 1.000000000000000100E-005 ), #12, 'distance_accuracy_value', 'NONE');
#151 = UNCERTAINTY_MEASURE_WITH_UNIT (LENGTH_MEASURE( 1.000000000000000100E-005 ), #162, 'distance_accuracy_value', 'NONE');
#152 = FILL_AREA_STYLE ('',( #139 ) ) ;
#153 = SURFACE_STYLE_FILL_AREA ( #152 ) ;
#154 = SURFACE_SIDE_STYLE ('',( #153 ) ) ;
#155 = SURFACE_STYLE_USAGE ( .BOTH. , #154 ) ;
#156 = PRESENTATION_STYLE_ASSIGNMENT (( #155 ) ) ;
#157 =( LENGTH_UNIT ( ) NAMED_UNIT ( * ) SI_UNIT ( $, .METRE. ) );
#158 =( CONVERSION_BASED_UNIT ( 'INCH', #31 ) LENGTH_UNIT ( ) NAMED_UNIT ( #140 ) );
#159 =( NAMED_UNIT ( * ) PLANE_ANGLE_UNIT ( ) SI_UNIT ( $, .RADIAN. ) );
#160 =( NAMED_UNIT ( * ) SI_UNIT ( $, .STERADIAN. ) SOLID_ANGLE_UNIT ( ) );
#161 =( LENGTH_UNIT ( ) NAMED_UNIT ( * ) SI_UNIT ( $, .METRE. ) );
#162 =( CONVERSION_BASED_UNIT ( 'INCH', #32 ) LENGTH_UNIT ( ) NAMED_UNIT ( #143 ) );
#163 =( NAMED_UNIT ( * ) PLANE_ANGLE_UNIT ( ) SI_UNIT ( $, .RADIAN. ) );
#164 =( NAMED_UNIT ( * ) SI_UNIT ( $, .STERADIAN. ) SOLID_ANGLE_UNIT ( ) );
#165 = VECTOR ( 'NONE', #210, 39.37007874015748100 ) ;
#166 = VECTOR ( 'NONE', #105, 39.37007874015748100 ) ;
#167 = VECTOR ( 'NONE', #195, 39.37007874015748100 ) ;
#168 = VECTOR ( 'NONE', #201, 39.37007874015748100 ) ;
#169 = VECTOR ( 'NONE', #204, 39.37007874015748100 ) ;
#170 = VECTOR ( 'NONE', #207, 39.37007874015748100 ) ;
#171 = FACE_OUTER_BOUND ( 'NONE', #95, .T. ) ;
#172 = VECTOR ( 'NONE', #198, 39.37007874015748100 ) ;
#173 = VECTOR ( 'NONE', #108, 39.37007874015748100 ) ;
#174 = APPLICATION_CONTEXT ( 'automotive_design' ) ;
#175 = APPLICATION_CONTEXT ( 'automotive_design' ) ;
#176 = ORIENTED_EDGE ( 'NONE', *, *, #59, .F. ) ;
#177 = ORIENTED_EDGE ( 'NONE', *, *, #49, .F. ) ;
#178 = ORIENTED_EDGE ( 'NONE', *, *, #51, .F. ) ;
#179 = PLANE ( 'NONE',  #21 ) ;
#180 = CARTESIAN_POINT ( 'NONE',  ( 0.0000000000000000000, 0.2500000000000000000, 0.0000000000000000000 ) ) ;
#181 = DIRECTION ( 'NONE',  ( 0.0000000000000000000, -1.000000000000000000, -0.0000000000000000000 ) ) ;
#182 = DIRECTION ( 'NONE',  ( 0.0000000000000000000, 0.0000000000000000000, -1.000000000000000000 ) ) ;
#183 = LINE ( 'NONE', #184, #26 ) ;
#184 = CARTESIAN_POINT ( 'NONE',  ( 0.0000000000000000000, 0.2500000000000000000, 0.0000000000000000000 ) ) ;
#185 = DIRECTION ( 'NONE',  ( -0.0000000000000000000, -0.0000000000000000000, 1.000000000000000000 ) ) ;
#186 = PLANE ( 'NONE',  #41 ) ;
#187 = LINE ( 'NONE', #188, #27 ) ;
#188 = CARTESIAN_POINT ( 'NONE',  ( 0.0000000000000000000, 0.0000000000000000000, 0.0000000000000000000 ) ) ;
#189 = DIRECTION ( 'NONE',  ( -0.0000000000000000000, -0.0000000000000000000, 1.000000000000000000 ) ) ;
#190 = LINE ( 'NONE', #191, #28 ) ;
#191 = CARTESIAN_POINT ( 'NONE',  ( 0.0000000000000000000, 0.2500000000000000000, -1.000000000000000000 ) ) ;
#192 = DIRECTION ( 'NONE',  ( -1.000000000000000000, -0.0000000000000000000, -0.0000000000000000000 ) ) ;
#193 = LINE ( 'NONE', #194, #167 ) ;
#194 = CARTESIAN_POINT ( 'NONE',  ( 0.0000000000000000000, 0.0000000000000000000, -1.000000000000000000 ) ) ;
#195 = DIRECTION ( 'NONE',  ( -1.000000000000000000, -0.0000000000000000000, -0.0000000000000000000 ) ) ;
#196 = LINE ( 'NONE', #197, #172 ) ;
#197 = CARTESIAN_POINT ( 'NONE',  ( 0.0000000000000000000, 0.2500000000000000000, -1.000000000000000000 ) ) ;
#198 = DIRECTION ( 'NONE',  ( -0.0000000000000000000, -1.000000000000000000, -0.0000000000000000000 ) ) ;
#199 = LINE ( 'NONE', #200, #168 ) ;
#200 = CARTESIAN_POINT ( 'NONE',  ( 0.9999999999999996700, 0.2500000000000000000, -1.000000000000000000 ) ) ;
#201 = DIRECTION ( 'NONE',  ( -2.731847993664263200E-016, -0.0000000000000000000, -1.000000000000000000 ) ) ;
#202 = LINE ( 'NONE', #203, #169 ) ;
#203 = CARTESIAN_POINT ( 'NONE',  ( 0.9999999999999996700, 0.0000000000000000000, -1.000000000000000000 ) ) ;
#204 = DIRECTION ( 'NONE',  ( -2.731847993664263200E-016, -0.0000000000000000000, -1.000000000000000000 ) ) ;
#205 = LINE ( 'NONE', #206, #170 ) ;
#206 = CARTESIAN_POINT ( 'NONE',  ( 0.9999999999999996700, 0.2500000000000000000, -1.000000000000000000 ) ) ;
#207 = DIRECTION ( 'NONE',  ( -0.0000000000000000000, -1.000000000000000000, -0.0000000000000000000 ) ) ;
#208 = LINE ( 'NONE', #209, #165 ) ;
#209 = CARTESIAN_POINT ( 'NONE',  ( 0.0000000000000000000, 0.2500000000000000000, 0.0000000000000000000 ) ) ;
#210 = DIRECTION ( 'NONE',  ( -0.0000000000000000000, -1.000000000000000000, -0.0000000000000000000 ) ) ;
#211 = LINE ( 'NONE', #104, #166 ) ;
ENDSEC;
END-ISO-10303-21;
