ISO-10303-21;
HEADER;
FILE_DESCRIPTION (( 'STEP AP214' ),
    '1' );
FILE_NAME ('R1000H.step',
    '2012-04-20T21:04:21',
    ( '' ),
    ( '' ),
    'SwSTEP 2.0',
    'SolidWorks 2012',
    '' );
FILE_SCHEMA (( 'AUTOMOTIVE_DESIGN' ));
ENDSEC;

DATA;
#1 = LENGTH_MEASURE_WITH_UNIT ( LENGTH_MEASURE( 0.02539999999999999900 ), #80 );
#2 = AXIS2_PLACEMENT_3D ( 'NONE', #94, #95, #96 ) ;
#3 = LENGTH_MEASURE_WITH_UNIT ( LENGTH_MEASURE( 0.02539999999999999900 ), #76 );
#4 = LENGTH_MEASURE_WITH_UNIT ( LENGTH_MEASURE( 0.02539999999999999900 ), #90 );
#5 = MECHANICAL_DESIGN_GEOMETRIC_PRESENTATION_REPRESENTATION (  '', ( #7 ), #148 ) ;
#6 = PRESENTATION_LAYER_ASSIGNMENT (  '', '', ( #7 ) ) ;
#7 = STYLED_ITEM ( 'NONE', ( #89 ), #57 ) ;
#8 = ADVANCED_FACE ( 'NONE', ( #145 ), #140, .T. ) ;
#9 = ADVANCED_FACE ( 'NONE', ( #139 ), #108, .F. ) ;
#10 = ADVANCED_FACE ( 'NONE', ( #146 ), #112, .T. ) ;
#11 = ADVANCED_FACE ( 'NONE', ( #135 ), #143, .T. ) ;
#12 = EDGE_CURVE ( 'NONE', #40, #41, #28, .T. ) ;
#13 = EDGE_CURVE ( 'NONE', #42, #39, #27, .T. ) ;
#14 = EDGE_CURVE ( 'NONE', #41, #40, #29, .T. ) ;
#15 = EDGE_CURVE ( 'NONE', #41, #39, #129, .T. ) ;
#16 = PRESENTATION_LAYER_ASSIGNMENT (  '', '', ( #20 ) ) ;
#17 = MECHANICAL_DESIGN_GEOMETRIC_PRESENTATION_REPRESENTATION (  '', ( #20 ), #149 ) ;
#18 = VECTOR ( 'NONE', #66, 39.37007874015748100 ) ;
#19 = VECTOR ( 'NONE', #131, 39.37007874015748100 ) ;
#20 = STYLED_ITEM ( 'NONE', ( #75 ), #47 ) ;
#21 = AXIS2_PLACEMENT_3D ( 'NONE', #128, #132, #62 ) ;
#22 = AXIS2_PLACEMENT_3D ( 'NONE', #125, #126, #127 ) ;
#23 = AXIS2_PLACEMENT_3D ( 'NONE', #122, #123, #124 ) ;
#24 = EDGE_CURVE ( 'NONE', #39, #42, #30, .T. ) ;
#25 = PRODUCT_DEFINITION_FORMATION_WITH_SPECIFIED_SOURCE ( 'ANY', '', #53, .NOT_KNOWN. ) ;
#26 = EDGE_CURVE ( 'NONE', #40, #42, #64, .T. ) ;
#27 = CIRCLE ( 'NONE', #23, 0.5000000000000000000 ) ;
#28 = CIRCLE ( 'NONE', #137, 0.5000000000000000000 ) ;
#29 = CIRCLE ( 'NONE', #22, 0.5000000000000000000 ) ;
#30 = CIRCLE ( 'NONE', #21, 0.5000000000000000000 ) ;
#31 = PRODUCT_DEFINITION ( 'UNKNOWN', '', #25, #49 ) ;
#32 = COLOUR_RGB ( '',0.5686274509803921400, 0.5686274509803921400, 0.5882352941176470800 ) ;
#33 = COLOUR_RGB ( '',0.5686274509803921400, 0.5686274509803921400, 0.5882352941176470800 ) ;
#34 = PRODUCT_RELATED_PRODUCT_CATEGORY ( 'part', '', ( #53 ) ) ;
#35 = EDGE_LOOP ( 'NONE', ( #100, #98, #99, #45 ) ) ;
#36 = EDGE_LOOP ( 'NONE', ( #103, #97, #44, #46 ) ) ;
#37 = EDGE_LOOP ( 'NONE', ( #43, #101 ) ) ;
#38 = EDGE_LOOP ( 'NONE', ( #104, #102 ) ) ;
#39 = VERTEX_POINT ( 'NONE', #67 ) ;
#40 = VERTEX_POINT ( 'NONE', #68 ) ;
#41 = VERTEX_POINT ( 'NONE', #69 ) ;
#42 = VERTEX_POINT ( 'NONE', #70 ) ;
#43 = ORIENTED_EDGE ( 'NONE', *, *, #12, .T. ) ;
#44 = ORIENTED_EDGE ( 'NONE', *, *, #24, .T. ) ;
#45 = ORIENTED_EDGE ( 'NONE', *, *, #13, .T. ) ;
#46 = ORIENTED_EDGE ( 'NONE', *, *, #26, .F. ) ;
#47 = MANIFOLD_SOLID_BREP ( 'Boss-Extrude1', #136 ) ;
#48 = PRODUCT_DEFINITION_SHAPE ( 'NONE', 'NONE',  #31 ) ;
#49 = PRODUCT_DEFINITION_CONTEXT ( 'detailed design', #133, 'design' ) ;
#50 = DIMENSIONAL_EXPONENTS ( 1.000000000000000000, 0.0000000000000000000, 0.0000000000000000000, 0.0000000000000000000, 0.0000000000000000000, 0.0000000000000000000, 0.0000000000000000000 ) ;
#51 = DIMENSIONAL_EXPONENTS ( 1.000000000000000000, 0.0000000000000000000, 0.0000000000000000000, 0.0000000000000000000, 0.0000000000000000000, 0.0000000000000000000, 0.0000000000000000000 ) ;
#52 = DIMENSIONAL_EXPONENTS ( 1.000000000000000000, 0.0000000000000000000, 0.0000000000000000000, 0.0000000000000000000, 0.0000000000000000000, 0.0000000000000000000, 0.0000000000000000000 ) ;
#53 = PRODUCT ( 'R1000H', 'R1000H', '', ( #60 ) ) ;
#54 = UNCERTAINTY_MEASURE_WITH_UNIT (LENGTH_MEASURE( 1.000000000000000100E-005 ), #77, 'distance_accuracy_value', 'NONE');
#55 = UNCERTAINTY_MEASURE_WITH_UNIT (LENGTH_MEASURE( 1.000000000000000100E-005 ), #81, 'distance_accuracy_value', 'NONE');
#56 = UNCERTAINTY_MEASURE_WITH_UNIT (LENGTH_MEASURE( 1.000000000000000100E-005 ), #91, 'distance_accuracy_value', 'NONE');
#57 = ADVANCED_BREP_SHAPE_REPRESENTATION ( 'R1000H', ( #47, #2 ), #147 ) ;
#58 = SHAPE_DEFINITION_REPRESENTATION ( #48, #57 ) ;
#59 = APPLICATION_PROTOCOL_DEFINITION ( 'draft international standard', 'automotive_design', 1998, #134 ) ;
#60 = PRODUCT_CONTEXT ( 'NONE', #134, 'mechanical' ) ;
#61 = APPLICATION_PROTOCOL_DEFINITION ( 'draft international standard', 'automotive_design', 1998, #133 ) ;
#62 = DIRECTION ( 'NONE',  ( 0.0000000000000000000, 0.0000000000000000000, 1.000000000000000000 ) ) ;
#63 = FILL_AREA_STYLE_COLOUR ( '', #32 ) ;
#64 = LINE ( 'NONE', #65, #18 ) ;
#65 = CARTESIAN_POINT ( 'NONE',  ( 0.0000000000000000000, 1.000000000000000000, -0.5000000000000000000 ) ) ;
#66 = DIRECTION ( 'NONE',  ( -0.0000000000000000000, -1.000000000000000000, -0.0000000000000000000 ) ) ;
#67 = CARTESIAN_POINT ( 'NONE',  ( 6.123233995736766000E-017, 0.0000000000000000000, 0.5000000000000000000 ) ) ;
#68 = CARTESIAN_POINT ( 'NONE',  ( 0.0000000000000000000, 1.000000000000000000, -0.5000000000000000000 ) ) ;
#69 = CARTESIAN_POINT ( 'NONE',  ( 6.123233995736766000E-017, 1.000000000000000000, 0.5000000000000000000 ) ) ;
#70 = CARTESIAN_POINT ( 'NONE',  ( 0.0000000000000000000, 0.0000000000000000000, -0.5000000000000000000 ) ) ;
#71 = FILL_AREA_STYLE ('',( #63 ) ) ;
#72 = SURFACE_STYLE_FILL_AREA ( #71 ) ;
#73 = SURFACE_SIDE_STYLE ('',( #72 ) ) ;
#74 = SURFACE_STYLE_USAGE ( .BOTH. , #73 ) ;
#75 = PRESENTATION_STYLE_ASSIGNMENT (( #74 ) ) ;
#76 =( LENGTH_UNIT ( ) NAMED_UNIT ( * ) SI_UNIT ( $, .METRE. ) );
#77 =( CONVERSION_BASED_UNIT ( 'INCH', #3 ) LENGTH_UNIT ( ) NAMED_UNIT ( #51 ) );
#78 =( NAMED_UNIT ( * ) PLANE_ANGLE_UNIT ( ) SI_UNIT ( $, .RADIAN. ) );
#79 =( NAMED_UNIT ( * ) SI_UNIT ( $, .STERADIAN. ) SOLID_ANGLE_UNIT ( ) );
#80 =( LENGTH_UNIT ( ) NAMED_UNIT ( * ) SI_UNIT ( $, .METRE. ) );
#81 =( CONVERSION_BASED_UNIT ( 'INCH', #1 ) LENGTH_UNIT ( ) NAMED_UNIT ( #50 ) );
#82 =( NAMED_UNIT ( * ) PLANE_ANGLE_UNIT ( ) SI_UNIT ( $, .RADIAN. ) );
#83 =( NAMED_UNIT ( * ) SI_UNIT ( $, .STERADIAN. ) SOLID_ANGLE_UNIT ( ) );
#84 = FILL_AREA_STYLE_COLOUR ( '', #33 ) ;
#85 = FILL_AREA_STYLE ('',( #84 ) ) ;
#86 = SURFACE_STYLE_FILL_AREA ( #85 ) ;
#87 = SURFACE_SIDE_STYLE ('',( #86 ) ) ;
#88 = SURFACE_STYLE_USAGE ( .BOTH. , #87 ) ;
#89 = PRESENTATION_STYLE_ASSIGNMENT (( #88 ) ) ;
#90 =( LENGTH_UNIT ( ) NAMED_UNIT ( * ) SI_UNIT ( $, .METRE. ) );
#91 =( CONVERSION_BASED_UNIT ( 'INCH', #4 ) LENGTH_UNIT ( ) NAMED_UNIT ( #52 ) );
#92 =( NAMED_UNIT ( * ) PLANE_ANGLE_UNIT ( ) SI_UNIT ( $, .RADIAN. ) );
#93 =( NAMED_UNIT ( * ) SI_UNIT ( $, .STERADIAN. ) SOLID_ANGLE_UNIT ( ) );
#94 = CARTESIAN_POINT ( 'NONE',  ( 0.0000000000000000000, 0.0000000000000000000, 0.0000000000000000000 ) ) ;
#95 = DIRECTION ( 'NONE',  ( 0.0000000000000000000, 0.0000000000000000000, 1.000000000000000000 ) ) ;
#96 = DIRECTION ( 'NONE',  ( 1.000000000000000000, 0.0000000000000000000, 0.0000000000000000000 ) ) ;
#97 = ORIENTED_EDGE ( 'NONE', *, *, #15, .T. ) ;
#98 = ORIENTED_EDGE ( 'NONE', *, *, #12, .F. ) ;
#99 = ORIENTED_EDGE ( 'NONE', *, *, #26, .T. ) ;
#100 = ORIENTED_EDGE ( 'NONE', *, *, #15, .F. ) ;
#101 = ORIENTED_EDGE ( 'NONE', *, *, #14, .T. ) ;
#102 = ORIENTED_EDGE ( 'NONE', *, *, #24, .F. ) ;
#103 = ORIENTED_EDGE ( 'NONE', *, *, #14, .F. ) ;
#104 = ORIENTED_EDGE ( 'NONE', *, *, #13, .F. ) ;
#105 = CARTESIAN_POINT ( 'NONE',  ( 0.0000000000000000000, 1.000000000000000000, 0.0000000000000000000 ) ) ;
#106 = DIRECTION ( 'NONE',  ( -0.0000000000000000000, -1.000000000000000000, -0.0000000000000000000 ) ) ;
#107 = DIRECTION ( 'NONE',  ( 0.0000000000000000000, 0.0000000000000000000, -1.000000000000000000 ) ) ;
#108 = PLANE ( 'NONE',  #138 ) ;
#109 = CARTESIAN_POINT ( 'NONE',  ( 0.0000000000000000000, 0.0000000000000000000, 0.0000000000000000000 ) ) ;
#110 = DIRECTION ( 'NONE',  ( 0.0000000000000000000, 1.000000000000000000, 0.0000000000000000000 ) ) ;
#111 = DIRECTION ( 'NONE',  ( 0.0000000000000000000, -0.0000000000000000000, 1.000000000000000000 ) ) ;
#112 = PLANE ( 'NONE',  #144 ) ;
#113 = CARTESIAN_POINT ( 'NONE',  ( 0.0000000000000000000, 1.000000000000000000, 0.0000000000000000000 ) ) ;
#114 = DIRECTION ( 'NONE',  ( 0.0000000000000000000, 1.000000000000000000, 0.0000000000000000000 ) ) ;
#115 = DIRECTION ( 'NONE',  ( 0.0000000000000000000, -0.0000000000000000000, 1.000000000000000000 ) ) ;
#116 = CARTESIAN_POINT ( 'NONE',  ( 0.0000000000000000000, 1.000000000000000000, 0.0000000000000000000 ) ) ;
#117 = DIRECTION ( 'NONE',  ( -0.0000000000000000000, -1.000000000000000000, -0.0000000000000000000 ) ) ;
#118 = DIRECTION ( 'NONE',  ( 0.0000000000000000000, 0.0000000000000000000, -1.000000000000000000 ) ) ;
#119 = CARTESIAN_POINT ( 'NONE',  ( 0.0000000000000000000, 1.000000000000000000, 0.0000000000000000000 ) ) ;
#120 = DIRECTION ( 'NONE',  ( 0.0000000000000000000, 1.000000000000000000, 0.0000000000000000000 ) ) ;
#121 = DIRECTION ( 'NONE',  ( 0.0000000000000000000, 0.0000000000000000000, 1.000000000000000000 ) ) ;
#122 = CARTESIAN_POINT ( 'NONE',  ( 0.0000000000000000000, 0.0000000000000000000, 0.0000000000000000000 ) ) ;
#123 = DIRECTION ( 'NONE',  ( 0.0000000000000000000, 1.000000000000000000, 0.0000000000000000000 ) ) ;
#124 = DIRECTION ( 'NONE',  ( 0.0000000000000000000, 0.0000000000000000000, 1.000000000000000000 ) ) ;
#125 = CARTESIAN_POINT ( 'NONE',  ( 0.0000000000000000000, 1.000000000000000000, 0.0000000000000000000 ) ) ;
#126 = DIRECTION ( 'NONE',  ( 0.0000000000000000000, 1.000000000000000000, 0.0000000000000000000 ) ) ;
#127 = DIRECTION ( 'NONE',  ( 0.0000000000000000000, 0.0000000000000000000, 1.000000000000000000 ) ) ;
#128 = CARTESIAN_POINT ( 'NONE',  ( 0.0000000000000000000, 0.0000000000000000000, 0.0000000000000000000 ) ) ;
#129 = LINE ( 'NONE', #130, #19 ) ;
#130 = CARTESIAN_POINT ( 'NONE',  ( 6.123233995736766000E-017, 1.000000000000000000, 0.5000000000000000000 ) ) ;
#131 = DIRECTION ( 'NONE',  ( -0.0000000000000000000, -1.000000000000000000, -0.0000000000000000000 ) ) ;
#132 = DIRECTION ( 'NONE',  ( 0.0000000000000000000, 1.000000000000000000, 0.0000000000000000000 ) ) ;
#133 = APPLICATION_CONTEXT ( 'automotive_design' ) ;
#134 = APPLICATION_CONTEXT ( 'automotive_design' ) ;
#135 = FACE_OUTER_BOUND ( 'NONE', #35, .T. ) ;
#136 = CLOSED_SHELL ( 'NONE', ( #8, #11, #10, #9 ) ) ;
#137 = AXIS2_PLACEMENT_3D ( 'NONE', #119, #120, #121 ) ;
#138 = AXIS2_PLACEMENT_3D ( 'NONE', #109, #110, #111 ) ;
#139 = FACE_OUTER_BOUND ( 'NONE', #38, .T. ) ;
#140 = CYLINDRICAL_SURFACE ( 'NONE', #142, 0.5000000000000000000 ) ;
#141 = AXIS2_PLACEMENT_3D ( 'NONE', #116, #117, #118 ) ;
#142 = AXIS2_PLACEMENT_3D ( 'NONE', #105, #106, #107 ) ;
#143 = CYLINDRICAL_SURFACE ( 'NONE', #141, 0.5000000000000000000 ) ;
#144 = AXIS2_PLACEMENT_3D ( 'NONE', #113, #114, #115 ) ;
#145 = FACE_OUTER_BOUND ( 'NONE', #36, .T. ) ;
#146 = FACE_OUTER_BOUND ( 'NONE', #37, .T. ) ;
#147 =( GEOMETRIC_REPRESENTATION_CONTEXT ( 3 ) GLOBAL_UNCERTAINTY_ASSIGNED_CONTEXT ( ( #55 ) ) GLOBAL_UNIT_ASSIGNED_CONTEXT ( ( #81, #82, #83 ) ) REPRESENTATION_CONTEXT ( 'NONE', 'WORKASPACE' ) );
#148 =( GEOMETRIC_REPRESENTATION_CONTEXT ( 3 ) GLOBAL_UNCERTAINTY_ASSIGNED_CONTEXT ( ( #56 ) ) GLOBAL_UNIT_ASSIGNED_CONTEXT ( ( #91, #92, #93 ) ) REPRESENTATION_CONTEXT ( 'NONE', 'WORKASPACE' ) );
#149 =( GEOMETRIC_REPRESENTATION_CONTEXT ( 3 ) GLOBAL_UNCERTAINTY_ASSIGNED_CONTEXT ( ( #54 ) ) GLOBAL_UNIT_ASSIGNED_CONTEXT ( ( #77, #78, #79 ) ) REPRESENTATION_CONTEXT ( 'NONE', 'WORKASPACE' ) );
ENDSEC;
END-ISO-10303-21;
