ISO-10303-21;
HEADER;
FILE_DESCRIPTION (( 'STEP AP214' ),
    '1' );
FILE_NAME ('R188A1.step',
    '2012-04-20T21:04:45',
    ( '' ),
    ( '' ),
    'SwSTEP 2.0',
    'SolidWorks 2012',
    '' );
FILE_SCHEMA (( 'AUTOMOTIVE_DESIGN' ));
ENDSEC;

DATA;
#1 = CYLINDRICAL_SURFACE ( 'NONE', #7, 0.07812500000000000000 ) ;
#2 = FACE_OUTER_BOUND ( 'NONE', #82, .T. ) ;
#3 = CYLINDRICAL_SURFACE ( 'NONE', #10, 0.07812500000000000000 ) ;
#4 = AXIS2_PLACEMENT_3D ( 'NONE', #69, #70, #71 ) ;
#5 = FACE_OUTER_BOUND ( 'NONE', #80, .T. ) ;
#6 = AXIS2_PLACEMENT_3D ( 'NONE', #65, #66, #67 ) ;
#7 = AXIS2_PLACEMENT_3D ( 'NONE', #72, #73, #74 ) ;
#8 = FACE_OUTER_BOUND ( 'NONE', #83, .T. ) ;
#9 = LENGTH_MEASURE_WITH_UNIT ( LENGTH_MEASURE( 0.02539999999999999900 ), #75 );
#10 = AXIS2_PLACEMENT_3D ( 'NONE', #128, #62, #63 ) ;
#11 = FACE_OUTER_BOUND ( 'NONE', #81, .T. ) ;
#12 = EDGE_CURVE ( 'NONE', #87, #84, #131, .T. ) ;
#13 = EDGE_CURVE ( 'NONE', #86, #87, #104, .T. ) ;
#14 = EDGE_CURVE ( 'NONE', #85, #84, #107, .T. ) ;
#15 = EDGE_CURVE ( 'NONE', #86, #85, #17, .T. ) ;
#16 = EDGE_CURVE ( 'NONE', #85, #86, #18, .T. ) ;
#17 = CIRCLE ( 'NONE', #142, 0.07812500000000000000 ) ;
#18 = CIRCLE ( 'NONE', #146, 0.07812500000000000000 ) ;
#19 = COLOUR_RGB ( '',0.5686274509803921400, 0.5686274509803921400, 0.5882352941176470800 ) ;
#20 = CIRCLE ( 'NONE', #137, 0.07812500000000000000 ) ;
#21 = COLOUR_RGB ( '',0.5686274509803921400, 0.5686274509803921400, 0.5882352941176470800 ) ;
#22 = PRODUCT_RELATED_PRODUCT_CATEGORY ( 'part', '', ( #41 ) ) ;
#23 = PRODUCT_DEFINITION ( 'UNKNOWN', '', #24, #31 ) ;
#24 = PRODUCT_DEFINITION_FORMATION_WITH_SPECIFIED_SOURCE ( 'ANY', '', #41, .NOT_KNOWN. ) ;
#25 = MECHANICAL_DESIGN_GEOMETRIC_PRESENTATION_REPRESENTATION (  '', ( #29 ), #148 ) ;
#26 = LENGTH_MEASURE_WITH_UNIT ( LENGTH_MEASURE( 0.02539999999999999900 ), #47 );
#27 = PRESENTATION_LAYER_ASSIGNMENT (  '', '', ( #29 ) ) ;
#28 = AXIS2_PLACEMENT_3D ( 'NONE', #51, #52, #53 ) ;
#29 = STYLED_ITEM ( 'NONE', ( #46 ), #34 ) ;
#30 = PRODUCT_DEFINITION_SHAPE ( 'NONE', 'NONE',  #23 ) ;
#31 = PRODUCT_DEFINITION_CONTEXT ( 'detailed design', #129, 'design' ) ;
#32 = MANIFOLD_SOLID_BREP ( 'Boss-Extrude1', #145 ) ;
#33 = UNCERTAINTY_MEASURE_WITH_UNIT (LENGTH_MEASURE( 1.000000000000000100E-005 ), #123, 'distance_accuracy_value', 'NONE');
#34 = ADVANCED_BREP_SHAPE_REPRESENTATION ( 'R188A1', ( #32, #28 ), #149 ) ;
#35 = UNCERTAINTY_MEASURE_WITH_UNIT (LENGTH_MEASURE( 1.000000000000000100E-005 ), #76, 'distance_accuracy_value', 'NONE');
#36 = UNCERTAINTY_MEASURE_WITH_UNIT (LENGTH_MEASURE( 1.000000000000000100E-005 ), #48, 'distance_accuracy_value', 'NONE');
#37 = EDGE_CURVE ( 'NONE', #84, #87, #20, .T. ) ;
#38 = DIMENSIONAL_EXPONENTS ( 1.000000000000000000, 0.0000000000000000000, 0.0000000000000000000, 0.0000000000000000000, 0.0000000000000000000, 0.0000000000000000000, 0.0000000000000000000 ) ;
#39 = DIMENSIONAL_EXPONENTS ( 1.000000000000000000, 0.0000000000000000000, 0.0000000000000000000, 0.0000000000000000000, 0.0000000000000000000, 0.0000000000000000000, 0.0000000000000000000 ) ;
#40 = DIMENSIONAL_EXPONENTS ( 1.000000000000000000, 0.0000000000000000000, 0.0000000000000000000, 0.0000000000000000000, 0.0000000000000000000, 0.0000000000000000000, 0.0000000000000000000 ) ;
#41 = PRODUCT ( 'R188A1', 'R188A1', '', ( #56 ) ) ;
#42 = FILL_AREA_STYLE ('',( #79 ) ) ;
#43 = SURFACE_STYLE_FILL_AREA ( #42 ) ;
#44 = SURFACE_SIDE_STYLE ('',( #43 ) ) ;
#45 = SURFACE_STYLE_USAGE ( .BOTH. , #44 ) ;
#46 = PRESENTATION_STYLE_ASSIGNMENT (( #45 ) ) ;
#47 =( LENGTH_UNIT ( ) NAMED_UNIT ( * ) SI_UNIT ( $, .METRE. ) );
#48 =( CONVERSION_BASED_UNIT ( 'INCH', #26 ) LENGTH_UNIT ( ) NAMED_UNIT ( #40 ) );
#49 =( NAMED_UNIT ( * ) PLANE_ANGLE_UNIT ( ) SI_UNIT ( $, .RADIAN. ) );
#50 =( NAMED_UNIT ( * ) SI_UNIT ( $, .STERADIAN. ) SOLID_ANGLE_UNIT ( ) );
#51 = CARTESIAN_POINT ( 'NONE',  ( 0.0000000000000000000, 0.0000000000000000000, 0.0000000000000000000 ) ) ;
#52 = DIRECTION ( 'NONE',  ( 0.0000000000000000000, 0.0000000000000000000, 1.000000000000000000 ) ) ;
#53 = DIRECTION ( 'NONE',  ( 1.000000000000000000, 0.0000000000000000000, 0.0000000000000000000 ) ) ;
#54 = SHAPE_DEFINITION_REPRESENTATION ( #30, #34 ) ;
#55 = APPLICATION_PROTOCOL_DEFINITION ( 'draft international standard', 'automotive_design', 1998, #130 ) ;
#56 = PRODUCT_CONTEXT ( 'NONE', #130, 'mechanical' ) ;
#57 = APPLICATION_PROTOCOL_DEFINITION ( 'draft international standard', 'automotive_design', 1998, #129 ) ;
#58 = CARTESIAN_POINT ( 'NONE',  ( 0.0000000000000000000, 0.0000000000000000000, -0.07812500000000000000 ) ) ;
#59 = CARTESIAN_POINT ( 'NONE',  ( 0.0000000000000000000, 0.1875000000000000300, -0.07812500000000000000 ) ) ;
#60 = CARTESIAN_POINT ( 'NONE',  ( 9.567553118338694200E-018, 0.1875000000000000300, 0.07812500000000000000 ) ) ;
#61 = CARTESIAN_POINT ( 'NONE',  ( 9.567553118338694200E-018, 0.0000000000000000000, 0.07812500000000000000 ) ) ;
#62 = DIRECTION ( 'NONE',  ( -0.0000000000000000000, -1.000000000000000000, -0.0000000000000000000 ) ) ;
#63 = DIRECTION ( 'NONE',  ( 0.0000000000000000000, 0.0000000000000000000, -1.000000000000000000 ) ) ;
#64 = PLANE ( 'NONE',  #6 ) ;
#65 = CARTESIAN_POINT ( 'NONE',  ( 0.0000000000000000000, 0.0000000000000000000, 0.0000000000000000000 ) ) ;
#66 = DIRECTION ( 'NONE',  ( 0.0000000000000000000, 1.000000000000000000, 0.0000000000000000000 ) ) ;
#67 = DIRECTION ( 'NONE',  ( 0.0000000000000000000, -0.0000000000000000000, 1.000000000000000000 ) ) ;
#68 = PLANE ( 'NONE',  #4 ) ;
#69 = CARTESIAN_POINT ( 'NONE',  ( 0.0000000000000000000, 0.1875000000000000300, 0.0000000000000000000 ) ) ;
#70 = DIRECTION ( 'NONE',  ( 0.0000000000000000000, 1.000000000000000000, 0.0000000000000000000 ) ) ;
#71 = DIRECTION ( 'NONE',  ( 0.0000000000000000000, -0.0000000000000000000, 1.000000000000000000 ) ) ;
#72 = CARTESIAN_POINT ( 'NONE',  ( 0.0000000000000000000, 0.1875000000000000300, 0.0000000000000000000 ) ) ;
#73 = DIRECTION ( 'NONE',  ( -0.0000000000000000000, -1.000000000000000000, -0.0000000000000000000 ) ) ;
#74 = DIRECTION ( 'NONE',  ( 0.0000000000000000000, 0.0000000000000000000, -1.000000000000000000 ) ) ;
#75 =( LENGTH_UNIT ( ) NAMED_UNIT ( * ) SI_UNIT ( $, .METRE. ) );
#76 =( CONVERSION_BASED_UNIT ( 'INCH', #9 ) LENGTH_UNIT ( ) NAMED_UNIT ( #39 ) );
#77 =( NAMED_UNIT ( * ) PLANE_ANGLE_UNIT ( ) SI_UNIT ( $, .RADIAN. ) );
#78 =( NAMED_UNIT ( * ) SI_UNIT ( $, .STERADIAN. ) SOLID_ANGLE_UNIT ( ) );
#79 = FILL_AREA_STYLE_COLOUR ( '', #21 ) ;
#80 = EDGE_LOOP ( 'NONE', ( #94, #88, #89, #96 ) ) ;
#81 = EDGE_LOOP ( 'NONE', ( #92, #97, #91, #93 ) ) ;
#82 = EDGE_LOOP ( 'NONE', ( #95, #98 ) ) ;
#83 = EDGE_LOOP ( 'NONE', ( #90, #99 ) ) ;
#84 = VERTEX_POINT ( 'NONE', #58 ) ;
#85 = VERTEX_POINT ( 'NONE', #59 ) ;
#86 = VERTEX_POINT ( 'NONE', #60 ) ;
#87 = VERTEX_POINT ( 'NONE', #61 ) ;
#88 = ORIENTED_EDGE ( 'NONE', *, *, #16, .F. ) ;
#89 = ORIENTED_EDGE ( 'NONE', *, *, #14, .T. ) ;
#90 = ORIENTED_EDGE ( 'NONE', *, *, #37, .F. ) ;
#91 = ORIENTED_EDGE ( 'NONE', *, *, #12, .T. ) ;
#92 = ORIENTED_EDGE ( 'NONE', *, *, #15, .F. ) ;
#93 = ORIENTED_EDGE ( 'NONE', *, *, #14, .F. ) ;
#94 = ORIENTED_EDGE ( 'NONE', *, *, #13, .F. ) ;
#95 = ORIENTED_EDGE ( 'NONE', *, *, #16, .T. ) ;
#96 = ORIENTED_EDGE ( 'NONE', *, *, #37, .T. ) ;
#97 = ORIENTED_EDGE ( 'NONE', *, *, #13, .T. ) ;
#98 = ORIENTED_EDGE ( 'NONE', *, *, #15, .T. ) ;
#99 = ORIENTED_EDGE ( 'NONE', *, *, #12, .F. ) ;
#100 = CARTESIAN_POINT ( 'NONE',  ( 0.0000000000000000000, 0.0000000000000000000, 0.0000000000000000000 ) ) ;
#101 = DIRECTION ( 'NONE',  ( 0.0000000000000000000, 1.000000000000000000, 0.0000000000000000000 ) ) ;
#102 = DIRECTION ( 'NONE',  ( 0.0000000000000000000, 0.0000000000000000000, 1.000000000000000000 ) ) ;
#103 = CARTESIAN_POINT ( 'NONE',  ( 0.0000000000000000000, 0.1875000000000000300, 0.0000000000000000000 ) ) ;
#104 = LINE ( 'NONE', #105, #144 ) ;
#105 = CARTESIAN_POINT ( 'NONE',  ( 9.567553118338694200E-018, 0.1875000000000000300, 0.07812500000000000000 ) ) ;
#106 = DIRECTION ( 'NONE',  ( -0.0000000000000000000, -1.000000000000000000, -0.0000000000000000000 ) ) ;
#107 = LINE ( 'NONE', #108, #140 ) ;
#108 = CARTESIAN_POINT ( 'NONE',  ( 0.0000000000000000000, 0.1875000000000000300, -0.07812500000000000000 ) ) ;
#109 = DIRECTION ( 'NONE',  ( -0.0000000000000000000, -1.000000000000000000, -0.0000000000000000000 ) ) ;
#110 = DIRECTION ( 'NONE',  ( 0.0000000000000000000, 1.000000000000000000, 0.0000000000000000000 ) ) ;
#111 = DIRECTION ( 'NONE',  ( 0.0000000000000000000, 0.0000000000000000000, 1.000000000000000000 ) ) ;
#112 = CARTESIAN_POINT ( 'NONE',  ( 0.0000000000000000000, 0.1875000000000000300, 0.0000000000000000000 ) ) ;
#113 = DIRECTION ( 'NONE',  ( 0.0000000000000000000, 1.000000000000000000, 0.0000000000000000000 ) ) ;
#114 = DIRECTION ( 'NONE',  ( 0.0000000000000000000, 0.0000000000000000000, 1.000000000000000000 ) ) ;
#115 = CARTESIAN_POINT ( 'NONE',  ( 0.0000000000000000000, 0.0000000000000000000, 0.0000000000000000000 ) ) ;
#116 = FILL_AREA_STYLE_COLOUR ( '', #19 ) ;
#117 = FILL_AREA_STYLE ('',( #116 ) ) ;
#118 = SURFACE_STYLE_FILL_AREA ( #117 ) ;
#119 = SURFACE_SIDE_STYLE ('',( #118 ) ) ;
#120 = SURFACE_STYLE_USAGE ( .BOTH. , #119 ) ;
#121 = PRESENTATION_STYLE_ASSIGNMENT (( #120 ) ) ;
#122 =( LENGTH_UNIT ( ) NAMED_UNIT ( * ) SI_UNIT ( $, .METRE. ) );
#123 =( CONVERSION_BASED_UNIT ( 'INCH', #139 ) LENGTH_UNIT ( ) NAMED_UNIT ( #38 ) );
#124 =( NAMED_UNIT ( * ) PLANE_ANGLE_UNIT ( ) SI_UNIT ( $, .RADIAN. ) );
#125 =( NAMED_UNIT ( * ) SI_UNIT ( $, .STERADIAN. ) SOLID_ANGLE_UNIT ( ) );
#126 = DIRECTION ( 'NONE',  ( 0.0000000000000000000, 1.000000000000000000, 0.0000000000000000000 ) ) ;
#127 = DIRECTION ( 'NONE',  ( 0.0000000000000000000, 0.0000000000000000000, 1.000000000000000000 ) ) ;
#128 = CARTESIAN_POINT ( 'NONE',  ( 0.0000000000000000000, 0.1875000000000000300, 0.0000000000000000000 ) ) ;
#129 = APPLICATION_CONTEXT ( 'automotive_design' ) ;
#130 = APPLICATION_CONTEXT ( 'automotive_design' ) ;
#131 = CIRCLE ( 'NONE', #136, 0.07812500000000000000 ) ;
#132 = ADVANCED_FACE ( 'NONE', ( #11 ), #3, .T. ) ;
#133 = ADVANCED_FACE ( 'NONE', ( #8 ), #64, .F. ) ;
#134 = ADVANCED_FACE ( 'NONE', ( #2 ), #68, .T. ) ;
#135 = ADVANCED_FACE ( 'NONE', ( #5 ), #1, .T. ) ;
#136 = AXIS2_PLACEMENT_3D ( 'NONE', #100, #101, #102 ) ;
#137 = AXIS2_PLACEMENT_3D ( 'NONE', #115, #126, #127 ) ;
#138 = MECHANICAL_DESIGN_GEOMETRIC_PRESENTATION_REPRESENTATION (  '', ( #141 ), #147 ) ;
#139 = LENGTH_MEASURE_WITH_UNIT ( LENGTH_MEASURE( 0.02539999999999999900 ), #122 );
#140 = VECTOR ( 'NONE', #109, 39.37007874015748100 ) ;
#141 = STYLED_ITEM ( 'NONE', ( #121 ), #32 ) ;
#142 = AXIS2_PLACEMENT_3D ( 'NONE', #103, #110, #111 ) ;
#143 = PRESENTATION_LAYER_ASSIGNMENT (  '', '', ( #141 ) ) ;
#144 = VECTOR ( 'NONE', #106, 39.37007874015748100 ) ;
#145 = CLOSED_SHELL ( 'NONE', ( #132, #135, #134, #133 ) ) ;
#146 = AXIS2_PLACEMENT_3D ( 'NONE', #112, #113, #114 ) ;
#147 =( GEOMETRIC_REPRESENTATION_CONTEXT ( 3 ) GLOBAL_UNCERTAINTY_ASSIGNED_CONTEXT ( ( #33 ) ) GLOBAL_UNIT_ASSIGNED_CONTEXT ( ( #123, #124, #125 ) ) REPRESENTATION_CONTEXT ( 'NONE', 'WORKASPACE' ) );
#148 =( GEOMETRIC_REPRESENTATION_CONTEXT ( 3 ) GLOBAL_UNCERTAINTY_ASSIGNED_CONTEXT ( ( #36 ) ) GLOBAL_UNIT_ASSIGNED_CONTEXT ( ( #48, #49, #50 ) ) REPRESENTATION_CONTEXT ( 'NONE', 'WORKASPACE' ) );
#149 =( GEOMETRIC_REPRESENTATION_CONTEXT ( 3 ) GLOBAL_UNCERTAINTY_ASSIGNED_CONTEXT ( ( #35 ) ) GLOBAL_UNIT_ASSIGNED_CONTEXT ( ( #76, #77, #78 ) ) REPRESENTATION_CONTEXT ( 'NONE', 'WORKASPACE' ) );
ENDSEC;
END-ISO-10303-21;
