ISO-10303-21;
HEADER;
FILE_DESCRIPTION (( 'STEP AP214' ),
    '1' );
FILE_NAME ('R188A2.step',
    '2012-04-20T21:04:47',
    ( '' ),
    ( '' ),
    'SwSTEP 2.0',
    'SolidWorks 2012',
    '' );
FILE_SCHEMA (( 'AUTOMOTIVE_DESIGN' ));
ENDSEC;

DATA;
#1 = LENGTH_MEASURE_WITH_UNIT ( LENGTH_MEASURE( 0.02539999999999999900 ), #46 );
#2 = FACE_OUTER_BOUND ( 'NONE', #105, .T. ) ;
#3 = AXIS2_PLACEMENT_3D ( 'NONE', #77, #78, #79 ) ;
#4 = MECHANICAL_DESIGN_GEOMETRIC_PRESENTATION_REPRESENTATION (  '', ( #8 ), #12 ) ;
#5 = PRESENTATION_LAYER_ASSIGNMENT (  '', '', ( #8 ) ) ;
#6 = AXIS2_PLACEMENT_3D ( 'NONE', #84, #85, #86 ) ;
#7 = LENGTH_MEASURE_WITH_UNIT ( LENGTH_MEASURE( 0.02539999999999999900 ), #54 );
#8 = STYLED_ITEM ( 'NONE', ( #92 ), #41 ) ;
#9 = FACE_OUTER_BOUND ( 'NONE', #107, .T. ) ;
#10 = CYLINDRICAL_SURFACE ( 'NONE', #11, 0.09375000000000001400 ) ;
#11 = AXIS2_PLACEMENT_3D ( 'NONE', #80, #81, #82 ) ;
#12 =( GEOMETRIC_REPRESENTATION_CONTEXT ( 3 ) GLOBAL_UNCERTAINTY_ASSIGNED_CONTEXT ( ( #45 ) ) GLOBAL_UNIT_ASSIGNED_CONTEXT ( ( #47, #48, #49 ) ) REPRESENTATION_CONTEXT ( 'NONE', 'WORKASPACE' ) );
#13 =( GEOMETRIC_REPRESENTATION_CONTEXT ( 3 ) GLOBAL_UNCERTAINTY_ASSIGNED_CONTEXT ( ( #42 ) ) GLOBAL_UNIT_ASSIGNED_CONTEXT ( ( #55, #56, #57 ) ) REPRESENTATION_CONTEXT ( 'NONE', 'WORKASPACE' ) );
#14 =( GEOMETRIC_REPRESENTATION_CONTEXT ( 3 ) GLOBAL_UNCERTAINTY_ASSIGNED_CONTEXT ( ( #44 ) ) GLOBAL_UNIT_ASSIGNED_CONTEXT ( ( #123, #124, #125 ) ) REPRESENTATION_CONTEXT ( 'NONE', 'WORKASPACE' ) );
#15 = ADVANCED_FACE ( 'NONE', ( #141 ), #143, .T. ) ;
#16 = EDGE_CURVE ( 'NONE', #110, #112, #24, .T. ) ;
#17 = EDGE_CURVE ( 'NONE', #112, #111, #62, .T. ) ;
#18 = EDGE_CURVE ( 'NONE', #111, #109, #25, .T. ) ;
#19 = EDGE_CURVE ( 'NONE', #110, #109, #68, .T. ) ;
#20 = EDGE_CURVE ( 'NONE', #112, #110, #26, .T. ) ;
#21 = EDGE_CURVE ( 'NONE', #109, #111, #27, .T. ) ;
#22 = ADVANCED_FACE ( 'NONE', ( #146 ), #76, .F. ) ;
#23 = ADVANCED_FACE ( 'NONE', ( #2 ), #10, .T. ) ;
#24 = CIRCLE ( 'NONE', #147, 0.09375000000000001400 ) ;
#25 = CIRCLE ( 'NONE', #144, 0.09375000000000001400 ) ;
#26 = CIRCLE ( 'NONE', #149, 0.09375000000000001400 ) ;
#27 = CIRCLE ( 'NONE', #145, 0.09375000000000001400 ) ;
#28 = COLOUR_RGB ( '',0.5686274509803921400, 0.5686274509803921400, 0.5882352941176470800 ) ;
#29 = COLOUR_RGB ( '',0.5686274509803921400, 0.5686274509803921400, 0.5882352941176470800 ) ;
#30 = PRODUCT_RELATED_PRODUCT_CATEGORY ( 'part', '', ( #136 ) ) ;
#31 = PRODUCT_DEFINITION ( 'UNKNOWN', '', #37, #39 ) ;
#32 = STYLED_ITEM ( 'NONE', ( #121 ), #43 ) ;
#33 = AXIS2_PLACEMENT_3D ( 'NONE', #126, #127, #128 ) ;
#34 = LENGTH_MEASURE_WITH_UNIT ( LENGTH_MEASURE( 0.02539999999999999900 ), #122 );
#35 = MECHANICAL_DESIGN_GEOMETRIC_PRESENTATION_REPRESENTATION (  '', ( #32 ), #14 ) ;
#36 = PRESENTATION_LAYER_ASSIGNMENT (  '', '', ( #32 ) ) ;
#37 = PRODUCT_DEFINITION_FORMATION_WITH_SPECIFIED_SOURCE ( 'ANY', '', #136, .NOT_KNOWN. ) ;
#38 = ADVANCED_FACE ( 'NONE', ( #9 ), #83, .T. ) ;
#39 = PRODUCT_DEFINITION_CONTEXT ( 'detailed design', #138, 'design' ) ;
#40 = PRODUCT_DEFINITION_SHAPE ( 'NONE', 'NONE',  #31 ) ;
#41 = MANIFOLD_SOLID_BREP ( 'Boss-Extrude1', #140 ) ;
#42 = UNCERTAINTY_MEASURE_WITH_UNIT (LENGTH_MEASURE( 1.000000000000000100E-005 ), #55, 'distance_accuracy_value', 'NONE');
#43 = ADVANCED_BREP_SHAPE_REPRESENTATION ( 'R188A2', ( #41, #33 ), #13 ) ;
#44 = UNCERTAINTY_MEASURE_WITH_UNIT (LENGTH_MEASURE( 1.000000000000000100E-005 ), #123, 'distance_accuracy_value', 'NONE');
#45 = UNCERTAINTY_MEASURE_WITH_UNIT (LENGTH_MEASURE( 1.000000000000000100E-005 ), #47, 'distance_accuracy_value', 'NONE');
#46 =( LENGTH_UNIT ( ) NAMED_UNIT ( * ) SI_UNIT ( $, .METRE. ) );
#47 =( CONVERSION_BASED_UNIT ( 'INCH', #1 ) LENGTH_UNIT ( ) NAMED_UNIT ( #134 ) );
#48 =( NAMED_UNIT ( * ) PLANE_ANGLE_UNIT ( ) SI_UNIT ( $, .RADIAN. ) );
#49 =( NAMED_UNIT ( * ) SI_UNIT ( $, .STERADIAN. ) SOLID_ANGLE_UNIT ( ) );
#50 = CARTESIAN_POINT ( 'NONE',  ( 0.0000000000000000000, 0.0000000000000000000, -0.09375000000000001400 ) ) ;
#51 = CARTESIAN_POINT ( 'NONE',  ( 0.0000000000000000000, 0.1875000000000000300, -0.09375000000000001400 ) ) ;
#52 = CARTESIAN_POINT ( 'NONE',  ( 1.148106374200643400E-017, 0.0000000000000000000, 0.09375000000000001400 ) ) ;
#53 = CARTESIAN_POINT ( 'NONE',  ( 1.148106374200643400E-017, 0.1875000000000000300, 0.09375000000000001400 ) ) ;
#54 =( LENGTH_UNIT ( ) NAMED_UNIT ( * ) SI_UNIT ( $, .METRE. ) );
#55 =( CONVERSION_BASED_UNIT ( 'INCH', #7 ) LENGTH_UNIT ( ) NAMED_UNIT ( #133 ) );
#56 =( NAMED_UNIT ( * ) PLANE_ANGLE_UNIT ( ) SI_UNIT ( $, .RADIAN. ) );
#57 =( NAMED_UNIT ( * ) SI_UNIT ( $, .STERADIAN. ) SOLID_ANGLE_UNIT ( ) );
#58 = CARTESIAN_POINT ( 'NONE',  ( 0.0000000000000000000, 0.1875000000000000300, 0.0000000000000000000 ) ) ;
#59 = DIRECTION ( 'NONE',  ( 0.0000000000000000000, 1.000000000000000000, 0.0000000000000000000 ) ) ;
#60 = DIRECTION ( 'NONE',  ( 0.0000000000000000000, 0.0000000000000000000, 1.000000000000000000 ) ) ;
#61 = CARTESIAN_POINT ( 'NONE',  ( 0.0000000000000000000, 0.0000000000000000000, 0.0000000000000000000 ) ) ;
#62 = LINE ( 'NONE', #63, #142 ) ;
#63 = CARTESIAN_POINT ( 'NONE',  ( 1.148106374200643400E-017, 0.1875000000000000300, 0.09375000000000001400 ) ) ;
#64 = DIRECTION ( 'NONE',  ( -0.0000000000000000000, -1.000000000000000000, -0.0000000000000000000 ) ) ;
#65 = DIRECTION ( 'NONE',  ( 0.0000000000000000000, 1.000000000000000000, 0.0000000000000000000 ) ) ;
#66 = DIRECTION ( 'NONE',  ( 0.0000000000000000000, 0.0000000000000000000, 1.000000000000000000 ) ) ;
#67 = CARTESIAN_POINT ( 'NONE',  ( 0.0000000000000000000, 0.1875000000000000300, 0.0000000000000000000 ) ) ;
#68 = LINE ( 'NONE', #69, #148 ) ;
#69 = CARTESIAN_POINT ( 'NONE',  ( 0.0000000000000000000, 0.1875000000000000300, -0.09375000000000001400 ) ) ;
#70 = DIRECTION ( 'NONE',  ( -0.0000000000000000000, -1.000000000000000000, -0.0000000000000000000 ) ) ;
#71 = DIRECTION ( 'NONE',  ( 0.0000000000000000000, 1.000000000000000000, 0.0000000000000000000 ) ) ;
#72 = DIRECTION ( 'NONE',  ( 0.0000000000000000000, 0.0000000000000000000, 1.000000000000000000 ) ) ;
#73 = CARTESIAN_POINT ( 'NONE',  ( 0.0000000000000000000, 0.0000000000000000000, 0.0000000000000000000 ) ) ;
#74 = DIRECTION ( 'NONE',  ( 0.0000000000000000000, 1.000000000000000000, 0.0000000000000000000 ) ) ;
#75 = DIRECTION ( 'NONE',  ( 0.0000000000000000000, 0.0000000000000000000, 1.000000000000000000 ) ) ;
#76 = PLANE ( 'NONE',  #3 ) ;
#77 = CARTESIAN_POINT ( 'NONE',  ( 0.0000000000000000000, 0.0000000000000000000, 0.0000000000000000000 ) ) ;
#78 = DIRECTION ( 'NONE',  ( 0.0000000000000000000, 1.000000000000000000, 0.0000000000000000000 ) ) ;
#79 = DIRECTION ( 'NONE',  ( 0.0000000000000000000, -0.0000000000000000000, 1.000000000000000000 ) ) ;
#80 = CARTESIAN_POINT ( 'NONE',  ( 0.0000000000000000000, 0.1875000000000000300, 0.0000000000000000000 ) ) ;
#81 = DIRECTION ( 'NONE',  ( -0.0000000000000000000, -1.000000000000000000, -0.0000000000000000000 ) ) ;
#82 = DIRECTION ( 'NONE',  ( 0.0000000000000000000, 0.0000000000000000000, -1.000000000000000000 ) ) ;
#83 = PLANE ( 'NONE',  #6 ) ;
#84 = CARTESIAN_POINT ( 'NONE',  ( 0.0000000000000000000, 0.1875000000000000300, 0.0000000000000000000 ) ) ;
#85 = DIRECTION ( 'NONE',  ( 0.0000000000000000000, 1.000000000000000000, 0.0000000000000000000 ) ) ;
#86 = DIRECTION ( 'NONE',  ( 0.0000000000000000000, -0.0000000000000000000, 1.000000000000000000 ) ) ;
#87 = FILL_AREA_STYLE_COLOUR ( '', #28 ) ;
#88 = FILL_AREA_STYLE ('',( #87 ) ) ;
#89 = SURFACE_STYLE_FILL_AREA ( #88 ) ;
#90 = SURFACE_SIDE_STYLE ('',( #89 ) ) ;
#91 = SURFACE_STYLE_USAGE ( .BOTH. , #90 ) ;
#92 = PRESENTATION_STYLE_ASSIGNMENT (( #91 ) ) ;
#93 = ORIENTED_EDGE ( 'NONE', *, *, #21, .F. ) ;
#94 = ORIENTED_EDGE ( 'NONE', *, *, #20, .T. ) ;
#95 = ORIENTED_EDGE ( 'NONE', *, *, #18, .F. ) ;
#96 = ORIENTED_EDGE ( 'NONE', *, *, #17, .T. ) ;
#97 = ORIENTED_EDGE ( 'NONE', *, *, #16, .T. ) ;
#98 = ORIENTED_EDGE ( 'NONE', *, *, #20, .F. ) ;
#99 = ORIENTED_EDGE ( 'NONE', *, *, #16, .F. ) ;
#100 = ORIENTED_EDGE ( 'NONE', *, *, #19, .F. ) ;
#101 = ORIENTED_EDGE ( 'NONE', *, *, #19, .T. ) ;
#102 = ORIENTED_EDGE ( 'NONE', *, *, #21, .T. ) ;
#103 = ORIENTED_EDGE ( 'NONE', *, *, #18, .T. ) ;
#104 = ORIENTED_EDGE ( 'NONE', *, *, #17, .F. ) ;
#105 = EDGE_LOOP ( 'NONE', ( #104, #99, #101, #102 ) ) ;
#106 = EDGE_LOOP ( 'NONE', ( #98, #96, #103, #100 ) ) ;
#107 = EDGE_LOOP ( 'NONE', ( #97, #94 ) ) ;
#108 = EDGE_LOOP ( 'NONE', ( #93, #95 ) ) ;
#109 = VERTEX_POINT ( 'NONE', #50 ) ;
#110 = VERTEX_POINT ( 'NONE', #51 ) ;
#111 = VERTEX_POINT ( 'NONE', #52 ) ;
#112 = VERTEX_POINT ( 'NONE', #53 ) ;
#113 = CARTESIAN_POINT ( 'NONE',  ( 0.0000000000000000000, 0.1875000000000000300, 0.0000000000000000000 ) ) ;
#114 = DIRECTION ( 'NONE',  ( -0.0000000000000000000, -1.000000000000000000, -0.0000000000000000000 ) ) ;
#115 = DIRECTION ( 'NONE',  ( 0.0000000000000000000, 0.0000000000000000000, -1.000000000000000000 ) ) ;
#116 = FILL_AREA_STYLE_COLOUR ( '', #29 ) ;
#117 = FILL_AREA_STYLE ('',( #116 ) ) ;
#118 = SURFACE_STYLE_FILL_AREA ( #117 ) ;
#119 = SURFACE_SIDE_STYLE ('',( #118 ) ) ;
#120 = SURFACE_STYLE_USAGE ( .BOTH. , #119 ) ;
#121 = PRESENTATION_STYLE_ASSIGNMENT (( #120 ) ) ;
#122 =( LENGTH_UNIT ( ) NAMED_UNIT ( * ) SI_UNIT ( $, .METRE. ) );
#123 =( CONVERSION_BASED_UNIT ( 'INCH', #34 ) LENGTH_UNIT ( ) NAMED_UNIT ( #135 ) );
#124 =( NAMED_UNIT ( * ) PLANE_ANGLE_UNIT ( ) SI_UNIT ( $, .RADIAN. ) );
#125 =( NAMED_UNIT ( * ) SI_UNIT ( $, .STERADIAN. ) SOLID_ANGLE_UNIT ( ) );
#126 = CARTESIAN_POINT ( 'NONE',  ( 0.0000000000000000000, 0.0000000000000000000, 0.0000000000000000000 ) ) ;
#127 = DIRECTION ( 'NONE',  ( 0.0000000000000000000, 0.0000000000000000000, 1.000000000000000000 ) ) ;
#128 = DIRECTION ( 'NONE',  ( 1.000000000000000000, 0.0000000000000000000, 0.0000000000000000000 ) ) ;
#129 = SHAPE_DEFINITION_REPRESENTATION ( #40, #43 ) ;
#130 = APPLICATION_PROTOCOL_DEFINITION ( 'draft international standard', 'automotive_design', 1998, #137 ) ;
#131 = PRODUCT_CONTEXT ( 'NONE', #137, 'mechanical' ) ;
#132 = APPLICATION_PROTOCOL_DEFINITION ( 'draft international standard', 'automotive_design', 1998, #138 ) ;
#133 = DIMENSIONAL_EXPONENTS ( 1.000000000000000000, 0.0000000000000000000, 0.0000000000000000000, 0.0000000000000000000, 0.0000000000000000000, 0.0000000000000000000, 0.0000000000000000000 ) ;
#134 = DIMENSIONAL_EXPONENTS ( 1.000000000000000000, 0.0000000000000000000, 0.0000000000000000000, 0.0000000000000000000, 0.0000000000000000000, 0.0000000000000000000, 0.0000000000000000000 ) ;
#135 = DIMENSIONAL_EXPONENTS ( 1.000000000000000000, 0.0000000000000000000, 0.0000000000000000000, 0.0000000000000000000, 0.0000000000000000000, 0.0000000000000000000, 0.0000000000000000000 ) ;
#136 = PRODUCT ( 'R188A2', 'R188A2', '', ( #131 ) ) ;
#137 = APPLICATION_CONTEXT ( 'automotive_design' ) ;
#138 = APPLICATION_CONTEXT ( 'automotive_design' ) ;
#139 = AXIS2_PLACEMENT_3D ( 'NONE', #113, #114, #115 ) ;
#140 = CLOSED_SHELL ( 'NONE', ( #15, #23, #38, #22 ) ) ;
#141 = FACE_OUTER_BOUND ( 'NONE', #106, .T. ) ;
#142 = VECTOR ( 'NONE', #64, 39.37007874015748100 ) ;
#143 = CYLINDRICAL_SURFACE ( 'NONE', #139, 0.09375000000000001400 ) ;
#144 = AXIS2_PLACEMENT_3D ( 'NONE', #61, #65, #66 ) ;
#145 = AXIS2_PLACEMENT_3D ( 'NONE', #73, #74, #75 ) ;
#146 = FACE_OUTER_BOUND ( 'NONE', #108, .T. ) ;
#147 = AXIS2_PLACEMENT_3D ( 'NONE', #58, #59, #60 ) ;
#148 = VECTOR ( 'NONE', #70, 39.37007874015748100 ) ;
#149 = AXIS2_PLACEMENT_3D ( 'NONE', #67, #71, #72 ) ;
ENDSEC;
END-ISO-10303-21;
