ISO-10303-21;
HEADER;
FILE_DESCRIPTION (( 'STEP AP214' ),
    '1' );
FILE_NAME ('R2000D.step',
    '2012-04-20T21:04:50',
    ( '' ),
    ( '' ),
    'SwSTEP 2.0',
    'SolidWorks 2012',
    '' );
FILE_SCHEMA (( 'AUTOMOTIVE_DESIGN' ));
ENDSEC;

DATA;
#1 = UNCERTAINTY_MEASURE_WITH_UNIT (LENGTH_MEASURE( 1.000000000000000100E-005 ), #91, 'distance_accuracy_value', 'NONE');
#2 = ADVANCED_BREP_SHAPE_REPRESENTATION ( 'R2000D', ( #37, #20 ), #40 ) ;
#3 = UNCERTAINTY_MEASURE_WITH_UNIT (LENGTH_MEASURE( 1.000000000000000100E-005 ), #131, 'distance_accuracy_value', 'NONE');
#4 = UNCERTAINTY_MEASURE_WITH_UNIT (LENGTH_MEASURE( 1.000000000000000100E-005 ), #57, 'distance_accuracy_value', 'NONE');
#5 = AXIS2_PLACEMENT_3D ( 'NONE', #66, #67, #68 ) ;
#6 = AXIS2_PLACEMENT_3D ( 'NONE', #83, #84, #85 ) ;
#7 = VECTOR ( 'NONE', #72, 39.37007874015748100 ) ;
#8 = AXIS2_PLACEMENT_3D ( 'NONE', #69, #73, #74 ) ;
#9 = AXIS2_PLACEMENT_3D ( 'NONE', #75, #76, #77 ) ;
#10 = FACE_OUTER_BOUND ( 'NONE', #108, .T. ) ;
#11 = FACE_OUTER_BOUND ( 'NONE', #105, .T. ) ;
#12 = DIMENSIONAL_EXPONENTS ( 1.000000000000000000, 0.0000000000000000000, 0.0000000000000000000, 0.0000000000000000000, 0.0000000000000000000, 0.0000000000000000000, 0.0000000000000000000 ) ;
#13 = DIMENSIONAL_EXPONENTS ( 1.000000000000000000, 0.0000000000000000000, 0.0000000000000000000, 0.0000000000000000000, 0.0000000000000000000, 0.0000000000000000000, 0.0000000000000000000 ) ;
#14 = DIMENSIONAL_EXPONENTS ( 1.000000000000000000, 0.0000000000000000000, 0.0000000000000000000, 0.0000000000000000000, 0.0000000000000000000, 0.0000000000000000000, 0.0000000000000000000 ) ;
#15 = PRODUCT ( 'R2000D', 'R2000D', '', ( #64 ) ) ;
#16 = LENGTH_MEASURE_WITH_UNIT ( LENGTH_MEASURE( 0.02539999999999999900 ), #90 );
#17 = AXIS2_PLACEMENT_3D ( 'NONE', #79, #80, #81 ) ;
#18 = LENGTH_MEASURE_WITH_UNIT ( LENGTH_MEASURE( 0.02539999999999999900 ), #56 );
#19 = FACE_OUTER_BOUND ( 'NONE', #107, .T. ) ;
#20 = AXIS2_PLACEMENT_3D ( 'NONE', #60, #61, #62 ) ;
#21 = PRODUCT_DEFINITION_FORMATION_WITH_SPECIFIED_SOURCE ( 'ANY', '', #15, .NOT_KNOWN. ) ;
#22 = MECHANICAL_DESIGN_GEOMETRIC_PRESENTATION_REPRESENTATION (  '', ( #24 ), #35 ) ;
#23 = PRESENTATION_LAYER_ASSIGNMENT (  '', '', ( #24 ) ) ;
#24 = STYLED_ITEM ( 'NONE', ( #55 ), #2 ) ;
#25 = ADVANCED_FACE ( 'NONE', ( #149 ), #143, .T. ) ;
#26 = EDGE_CURVE ( 'NONE', #112, #109, #117, .T. ) ;
#27 = EDGE_CURVE ( 'NONE', #112, #111, #28, .T. ) ;
#28 = CIRCLE ( 'NONE', #146, 0.2500000000000000000 ) ;
#29 = COLOUR_RGB ( '',0.5686274509803921400, 0.5686274509803921400, 0.5882352941176470800 ) ;
#30 = CIRCLE ( 'NONE', #8, 0.2500000000000000000 ) ;
#31 = CIRCLE ( 'NONE', #5, 0.2500000000000000000 ) ;
#32 = CIRCLE ( 'NONE', #9, 0.2500000000000000000 ) ;
#33 = PRODUCT_RELATED_PRODUCT_CATEGORY ( 'part', '', ( #15 ) ) ;
#34 = COLOUR_RGB ( '',0.5686274509803921400, 0.5686274509803921400, 0.5882352941176470800 ) ;
#35 =( GEOMETRIC_REPRESENTATION_CONTEXT ( 3 ) GLOBAL_UNCERTAINTY_ASSIGNED_CONTEXT ( ( #4 ) ) GLOBAL_UNIT_ASSIGNED_CONTEXT ( ( #57, #58, #59 ) ) REPRESENTATION_CONTEXT ( 'NONE', 'WORKASPACE' ) );
#36 = PRODUCT_DEFINITION_SHAPE ( 'NONE', 'NONE',  #42 ) ;
#37 = MANIFOLD_SOLID_BREP ( 'Boss-Extrude1', #144 ) ;
#38 = PRODUCT_DEFINITION_CONTEXT ( 'detailed design', #137, 'design' ) ;
#39 =( GEOMETRIC_REPRESENTATION_CONTEXT ( 3 ) GLOBAL_UNCERTAINTY_ASSIGNED_CONTEXT ( ( #3 ) ) GLOBAL_UNIT_ASSIGNED_CONTEXT ( ( #131, #132, #133 ) ) REPRESENTATION_CONTEXT ( 'NONE', 'WORKASPACE' ) );
#40 =( GEOMETRIC_REPRESENTATION_CONTEXT ( 3 ) GLOBAL_UNCERTAINTY_ASSIGNED_CONTEXT ( ( #1 ) ) GLOBAL_UNIT_ASSIGNED_CONTEXT ( ( #91, #92, #93 ) ) REPRESENTATION_CONTEXT ( 'NONE', 'WORKASPACE' ) );
#41 = ADVANCED_FACE ( 'NONE', ( #11 ), #147, .T. ) ;
#42 = PRODUCT_DEFINITION ( 'UNKNOWN', '', #21, #38 ) ;
#43 = EDGE_CURVE ( 'NONE', #109, #110, #31, .T. ) ;
#44 = EDGE_CURVE ( 'NONE', #111, #110, #70, .T. ) ;
#45 = EDGE_CURVE ( 'NONE', #111, #112, #30, .T. ) ;
#46 = EDGE_CURVE ( 'NONE', #110, #109, #32, .T. ) ;
#47 = ADVANCED_FACE ( 'NONE', ( #10 ), #78, .F. ) ;
#48 = ADVANCED_FACE ( 'NONE', ( #19 ), #82, .T. ) ;
#49 = APPLICATION_PROTOCOL_DEFINITION ( 'draft international standard', 'automotive_design', 1998, #136 ) ;
#50 = FILL_AREA_STYLE_COLOUR ( '', #34 ) ;
#51 = FILL_AREA_STYLE ('',( #50 ) ) ;
#52 = SURFACE_STYLE_FILL_AREA ( #51 ) ;
#53 = SURFACE_SIDE_STYLE ('',( #52 ) ) ;
#54 = SURFACE_STYLE_USAGE ( .BOTH. , #53 ) ;
#55 = PRESENTATION_STYLE_ASSIGNMENT (( #54 ) ) ;
#56 =( LENGTH_UNIT ( ) NAMED_UNIT ( * ) SI_UNIT ( $, .METRE. ) );
#57 =( CONVERSION_BASED_UNIT ( 'INCH', #18 ) LENGTH_UNIT ( ) NAMED_UNIT ( #14 ) );
#58 =( NAMED_UNIT ( * ) PLANE_ANGLE_UNIT ( ) SI_UNIT ( $, .RADIAN. ) );
#59 =( NAMED_UNIT ( * ) SI_UNIT ( $, .STERADIAN. ) SOLID_ANGLE_UNIT ( ) );
#60 = CARTESIAN_POINT ( 'NONE',  ( 0.0000000000000000000, 0.0000000000000000000, 0.0000000000000000000 ) ) ;
#61 = DIRECTION ( 'NONE',  ( 0.0000000000000000000, 0.0000000000000000000, 1.000000000000000000 ) ) ;
#62 = DIRECTION ( 'NONE',  ( 1.000000000000000000, 0.0000000000000000000, 0.0000000000000000000 ) ) ;
#63 = SHAPE_DEFINITION_REPRESENTATION ( #36, #2 ) ;
#64 = PRODUCT_CONTEXT ( 'NONE', #136, 'mechanical' ) ;
#65 = APPLICATION_PROTOCOL_DEFINITION ( 'draft international standard', 'automotive_design', 1998, #137 ) ;
#66 = CARTESIAN_POINT ( 'NONE',  ( 0.0000000000000000000, 0.0000000000000000000, 0.0000000000000000000 ) ) ;
#67 = DIRECTION ( 'NONE',  ( 0.0000000000000000000, 1.000000000000000000, 0.0000000000000000000 ) ) ;
#68 = DIRECTION ( 'NONE',  ( 0.0000000000000000000, 0.0000000000000000000, 1.000000000000000000 ) ) ;
#69 = CARTESIAN_POINT ( 'NONE',  ( 0.0000000000000000000, 2.000000000000000000, 0.0000000000000000000 ) ) ;
#70 = LINE ( 'NONE', #71, #7 ) ;
#71 = CARTESIAN_POINT ( 'NONE',  ( 0.0000000000000000000, 2.000000000000000000, -0.2500000000000000000 ) ) ;
#72 = DIRECTION ( 'NONE',  ( -0.0000000000000000000, -1.000000000000000000, -0.0000000000000000000 ) ) ;
#73 = DIRECTION ( 'NONE',  ( 0.0000000000000000000, 1.000000000000000000, 0.0000000000000000000 ) ) ;
#74 = DIRECTION ( 'NONE',  ( 0.0000000000000000000, 0.0000000000000000000, 1.000000000000000000 ) ) ;
#75 = CARTESIAN_POINT ( 'NONE',  ( 0.0000000000000000000, 0.0000000000000000000, 0.0000000000000000000 ) ) ;
#76 = DIRECTION ( 'NONE',  ( 0.0000000000000000000, 1.000000000000000000, 0.0000000000000000000 ) ) ;
#77 = DIRECTION ( 'NONE',  ( 0.0000000000000000000, 0.0000000000000000000, 1.000000000000000000 ) ) ;
#78 = PLANE ( 'NONE',  #17 ) ;
#79 = CARTESIAN_POINT ( 'NONE',  ( 0.0000000000000000000, 0.0000000000000000000, 0.0000000000000000000 ) ) ;
#80 = DIRECTION ( 'NONE',  ( 0.0000000000000000000, 1.000000000000000000, 0.0000000000000000000 ) ) ;
#81 = DIRECTION ( 'NONE',  ( 0.0000000000000000000, -0.0000000000000000000, 1.000000000000000000 ) ) ;
#82 = PLANE ( 'NONE',  #6 ) ;
#83 = CARTESIAN_POINT ( 'NONE',  ( 0.0000000000000000000, 2.000000000000000000, 0.0000000000000000000 ) ) ;
#84 = DIRECTION ( 'NONE',  ( 0.0000000000000000000, 1.000000000000000000, 0.0000000000000000000 ) ) ;
#85 = DIRECTION ( 'NONE',  ( 0.0000000000000000000, -0.0000000000000000000, 1.000000000000000000 ) ) ;
#86 = CARTESIAN_POINT ( 'NONE',  ( 3.061616997868383000E-017, 0.0000000000000000000, 0.2500000000000000000 ) ) ;
#87 = CARTESIAN_POINT ( 'NONE',  ( 0.0000000000000000000, 0.0000000000000000000, -0.2500000000000000000 ) ) ;
#88 = CARTESIAN_POINT ( 'NONE',  ( 0.0000000000000000000, 2.000000000000000000, -0.2500000000000000000 ) ) ;
#89 = CARTESIAN_POINT ( 'NONE',  ( 3.061616997868383000E-017, 2.000000000000000000, 0.2500000000000000000 ) ) ;
#90 =( LENGTH_UNIT ( ) NAMED_UNIT ( * ) SI_UNIT ( $, .METRE. ) );
#91 =( CONVERSION_BASED_UNIT ( 'INCH', #16 ) LENGTH_UNIT ( ) NAMED_UNIT ( #13 ) );
#92 =( NAMED_UNIT ( * ) PLANE_ANGLE_UNIT ( ) SI_UNIT ( $, .RADIAN. ) );
#93 =( NAMED_UNIT ( * ) SI_UNIT ( $, .STERADIAN. ) SOLID_ANGLE_UNIT ( ) );
#94 = ORIENTED_EDGE ( 'NONE', *, *, #43, .T. ) ;
#95 = ORIENTED_EDGE ( 'NONE', *, *, #26, .T. ) ;
#96 = ORIENTED_EDGE ( 'NONE', *, *, #44, .F. ) ;
#97 = ORIENTED_EDGE ( 'NONE', *, *, #26, .F. ) ;
#98 = ORIENTED_EDGE ( 'NONE', *, *, #44, .T. ) ;
#99 = ORIENTED_EDGE ( 'NONE', *, *, #45, .F. ) ;
#100 = ORIENTED_EDGE ( 'NONE', *, *, #46, .T. ) ;
#101 = ORIENTED_EDGE ( 'NONE', *, *, #45, .T. ) ;
#102 = ORIENTED_EDGE ( 'NONE', *, *, #27, .T. ) ;
#103 = ORIENTED_EDGE ( 'NONE', *, *, #46, .F. ) ;
#104 = ORIENTED_EDGE ( 'NONE', *, *, #43, .F. ) ;
#105 = EDGE_LOOP ( 'NONE', ( #97, #99, #98, #100 ) ) ;
#106 = EDGE_LOOP ( 'NONE', ( #113, #95, #94, #96 ) ) ;
#107 = EDGE_LOOP ( 'NONE', ( #101, #102 ) ) ;
#108 = EDGE_LOOP ( 'NONE', ( #103, #104 ) ) ;
#109 = VERTEX_POINT ( 'NONE', #86 ) ;
#110 = VERTEX_POINT ( 'NONE', #87 ) ;
#111 = VERTEX_POINT ( 'NONE', #88 ) ;
#112 = VERTEX_POINT ( 'NONE', #89 ) ;
#113 = ORIENTED_EDGE ( 'NONE', *, *, #27, .F. ) ;
#114 = CARTESIAN_POINT ( 'NONE',  ( 0.0000000000000000000, 2.000000000000000000, 0.0000000000000000000 ) ) ;
#115 = DIRECTION ( 'NONE',  ( -0.0000000000000000000, -1.000000000000000000, -0.0000000000000000000 ) ) ;
#116 = DIRECTION ( 'NONE',  ( 0.0000000000000000000, 0.0000000000000000000, -1.000000000000000000 ) ) ;
#117 = LINE ( 'NONE', #118, #139 ) ;
#118 = CARTESIAN_POINT ( 'NONE',  ( 3.061616997868383000E-017, 2.000000000000000000, 0.2500000000000000000 ) ) ;
#119 = DIRECTION ( 'NONE',  ( -0.0000000000000000000, -1.000000000000000000, -0.0000000000000000000 ) ) ;
#120 = CARTESIAN_POINT ( 'NONE',  ( 0.0000000000000000000, 2.000000000000000000, 0.0000000000000000000 ) ) ;
#121 = DIRECTION ( 'NONE',  ( 0.0000000000000000000, 1.000000000000000000, 0.0000000000000000000 ) ) ;
#122 = DIRECTION ( 'NONE',  ( 0.0000000000000000000, 0.0000000000000000000, 1.000000000000000000 ) ) ;
#123 = CARTESIAN_POINT ( 'NONE',  ( 0.0000000000000000000, 2.000000000000000000, 0.0000000000000000000 ) ) ;
#124 = FILL_AREA_STYLE_COLOUR ( '', #29 ) ;
#125 = FILL_AREA_STYLE ('',( #124 ) ) ;
#126 = SURFACE_STYLE_FILL_AREA ( #125 ) ;
#127 = SURFACE_SIDE_STYLE ('',( #126 ) ) ;
#128 = SURFACE_STYLE_USAGE ( .BOTH. , #127 ) ;
#129 = PRESENTATION_STYLE_ASSIGNMENT (( #128 ) ) ;
#130 =( LENGTH_UNIT ( ) NAMED_UNIT ( * ) SI_UNIT ( $, .METRE. ) );
#131 =( CONVERSION_BASED_UNIT ( 'INCH', #145 ) LENGTH_UNIT ( ) NAMED_UNIT ( #12 ) );
#132 =( NAMED_UNIT ( * ) PLANE_ANGLE_UNIT ( ) SI_UNIT ( $, .RADIAN. ) );
#133 =( NAMED_UNIT ( * ) SI_UNIT ( $, .STERADIAN. ) SOLID_ANGLE_UNIT ( ) );
#134 = DIRECTION ( 'NONE',  ( -0.0000000000000000000, -1.000000000000000000, -0.0000000000000000000 ) ) ;
#135 = DIRECTION ( 'NONE',  ( 0.0000000000000000000, 0.0000000000000000000, -1.000000000000000000 ) ) ;
#136 = APPLICATION_CONTEXT ( 'automotive_design' ) ;
#137 = APPLICATION_CONTEXT ( 'automotive_design' ) ;
#138 = AXIS2_PLACEMENT_3D ( 'NONE', #114, #115, #116 ) ;
#139 = VECTOR ( 'NONE', #119, 39.37007874015748100 ) ;
#140 = STYLED_ITEM ( 'NONE', ( #129 ), #37 ) ;
#141 = PRESENTATION_LAYER_ASSIGNMENT (  '', '', ( #140 ) ) ;
#142 = AXIS2_PLACEMENT_3D ( 'NONE', #123, #134, #135 ) ;
#143 = CYLINDRICAL_SURFACE ( 'NONE', #138, 0.2500000000000000000 ) ;
#144 = CLOSED_SHELL ( 'NONE', ( #25, #41, #48, #47 ) ) ;
#145 = LENGTH_MEASURE_WITH_UNIT ( LENGTH_MEASURE( 0.02539999999999999900 ), #130 );
#146 = AXIS2_PLACEMENT_3D ( 'NONE', #120, #121, #122 ) ;
#147 = CYLINDRICAL_SURFACE ( 'NONE', #142, 0.2500000000000000000 ) ;
#148 = MECHANICAL_DESIGN_GEOMETRIC_PRESENTATION_REPRESENTATION (  '', ( #140 ), #39 ) ;
#149 = FACE_OUTER_BOUND ( 'NONE', #106, .T. ) ;
ENDSEC;
END-ISO-10303-21;
