ISO-10303-21;
HEADER;
FILE_DESCRIPTION (( 'STEP AP214' ),
    '1' );
FILE_NAME ('R250-063.step',
    '2012-04-20T21:05:00',
    ( '' ),
    ( '' ),
    'SwSTEP 2.0',
    'SolidWorks 2012',
    '' );
FILE_SCHEMA (( 'AUTOMOTIVE_DESIGN' ));
ENDSEC;

DATA;
#1 = UNCERTAINTY_MEASURE_WITH_UNIT (LENGTH_MEASURE( 1.000000000000000100E-005 ), #83, 'distance_accuracy_value', 'NONE');
#2 = UNCERTAINTY_MEASURE_WITH_UNIT (LENGTH_MEASURE( 1.000000000000000100E-005 ), #56, 'distance_accuracy_value', 'NONE');
#3 = UNCERTAINTY_MEASURE_WITH_UNIT (LENGTH_MEASURE( 1.000000000000000100E-005 ), #65, 'distance_accuracy_value', 'NONE');
#4 = ADVANCED_BREP_SHAPE_REPRESENTATION ( 'R250-063', ( #30, #16 ), #29 ) ;
#5 = FACE_OUTER_BOUND ( 'NONE', #100, .T. ) ;
#6 = PRESENTATION_LAYER_ASSIGNMENT (  '', '', ( #144 ) ) ;
#7 = LENGTH_MEASURE_WITH_UNIT ( LENGTH_MEASURE( 0.02539999999999999900 ), #134 );
#8 = MECHANICAL_DESIGN_GEOMETRIC_PRESENTATION_REPRESENTATION (  '', ( #144 ), #28 ) ;
#9 = CIRCLE ( 'NONE', #149, 0.03124999999999997600 ) ;
#10 = EDGE_CURVE ( 'NONE', #102, #105, #9, .T. ) ;
#11 = EDGE_CURVE ( 'NONE', #104, #105, #110, .T. ) ;
#12 = EDGE_CURVE ( 'NONE', #104, #103, #37, .T. ) ;
#13 = EDGE_CURVE ( 'NONE', #105, #102, #38, .T. ) ;
#14 = EDGE_CURVE ( 'NONE', #103, #102, #119, .T. ) ;
#15 = EDGE_CURVE ( 'NONE', #103, #104, #39, .T. ) ;
#16 = AXIS2_PLACEMENT_3D ( 'NONE', #59, #60, #61 ) ;
#17 = FACE_OUTER_BOUND ( 'NONE', #98, .T. ) ;
#18 = CYLINDRICAL_SURFACE ( 'NONE', #26, 0.03124999999999997600 ) ;
#19 = FACE_OUTER_BOUND ( 'NONE', #99, .T. ) ;
#20 = LENGTH_MEASURE_WITH_UNIT ( LENGTH_MEASURE( 0.02539999999999999900 ), #82 );
#21 = LENGTH_MEASURE_WITH_UNIT ( LENGTH_MEASURE( 0.02539999999999999900 ), #55 );
#22 = AXIS2_PLACEMENT_3D ( 'NONE', #69, #70, #71 ) ;
#23 = MECHANICAL_DESIGN_GEOMETRIC_PRESENTATION_REPRESENTATION (  '', ( #25 ), #33 ) ;
#24 = PRESENTATION_LAYER_ASSIGNMENT (  '', '', ( #25 ) ) ;
#25 = STYLED_ITEM ( 'NONE', ( #54 ), #4 ) ;
#26 = AXIS2_PLACEMENT_3D ( 'NONE', #75, #76, #77 ) ;
#27 = ADVANCED_FACE ( 'NONE', ( #146 ), #124, .F. ) ;
#28 =( GEOMETRIC_REPRESENTATION_CONTEXT ( 3 ) GLOBAL_UNCERTAINTY_ASSIGNED_CONTEXT ( ( #3 ) ) GLOBAL_UNIT_ASSIGNED_CONTEXT ( ( #65, #66, #67 ) ) REPRESENTATION_CONTEXT ( 'NONE', 'WORKASPACE' ) );
#29 =( GEOMETRIC_REPRESENTATION_CONTEXT ( 3 ) GLOBAL_UNCERTAINTY_ASSIGNED_CONTEXT ( ( #1 ) ) GLOBAL_UNIT_ASSIGNED_CONTEXT ( ( #83, #84, #85 ) ) REPRESENTATION_CONTEXT ( 'NONE', 'WORKASPACE' ) );
#30 = MANIFOLD_SOLID_BREP ( 'Boss-Extrude1', #147 ) ;
#31 = PRODUCT_DEFINITION_SHAPE ( 'NONE', 'NONE',  #43 ) ;
#32 = PRODUCT_DEFINITION_CONTEXT ( 'detailed design', #136, 'design' ) ;
#33 =( GEOMETRIC_REPRESENTATION_CONTEXT ( 3 ) GLOBAL_UNCERTAINTY_ASSIGNED_CONTEXT ( ( #2 ) ) GLOBAL_UNIT_ASSIGNED_CONTEXT ( ( #56, #57, #58 ) ) REPRESENTATION_CONTEXT ( 'NONE', 'WORKASPACE' ) );
#34 = ADVANCED_FACE ( 'NONE', ( #5 ), #68, .T. ) ;
#35 = ADVANCED_FACE ( 'NONE', ( #17 ), #142, .T. ) ;
#36 = ADVANCED_FACE ( 'NONE', ( #19 ), #18, .T. ) ;
#37 = CIRCLE ( 'NONE', #141, 0.03124999999999997600 ) ;
#38 = CIRCLE ( 'NONE', #138, 0.03124999999999997600 ) ;
#39 = CIRCLE ( 'NONE', #143, 0.03124999999999997600 ) ;
#40 = COLOUR_RGB ( '',0.5686274509803921400, 0.5686274509803921400, 0.5882352941176470800 ) ;
#41 = COLOUR_RGB ( '',0.5686274509803921400, 0.5686274509803921400, 0.5882352941176470800 ) ;
#42 = PRODUCT_RELATED_PRODUCT_CATEGORY ( 'part', '', ( #47 ) ) ;
#43 = PRODUCT_DEFINITION ( 'UNKNOWN', '', #137, #32 ) ;
#44 = DIMENSIONAL_EXPONENTS ( 1.000000000000000000, 0.0000000000000000000, 0.0000000000000000000, 0.0000000000000000000, 0.0000000000000000000, 0.0000000000000000000, 0.0000000000000000000 ) ;
#45 = DIMENSIONAL_EXPONENTS ( 1.000000000000000000, 0.0000000000000000000, 0.0000000000000000000, 0.0000000000000000000, 0.0000000000000000000, 0.0000000000000000000, 0.0000000000000000000 ) ;
#46 = DIMENSIONAL_EXPONENTS ( 1.000000000000000000, 0.0000000000000000000, 0.0000000000000000000, 0.0000000000000000000, 0.0000000000000000000, 0.0000000000000000000, 0.0000000000000000000 ) ;
#47 = PRODUCT ( 'R250-063', 'R250-063', '', ( #63 ) ) ;
#48 = APPLICATION_PROTOCOL_DEFINITION ( 'draft international standard', 'automotive_design', 1998, #135 ) ;
#49 = FILL_AREA_STYLE_COLOUR ( '', #41 ) ;
#50 = FILL_AREA_STYLE ('',( #49 ) ) ;
#51 = SURFACE_STYLE_FILL_AREA ( #50 ) ;
#52 = SURFACE_SIDE_STYLE ('',( #51 ) ) ;
#53 = SURFACE_STYLE_USAGE ( .BOTH. , #52 ) ;
#54 = PRESENTATION_STYLE_ASSIGNMENT (( #53 ) ) ;
#55 =( LENGTH_UNIT ( ) NAMED_UNIT ( * ) SI_UNIT ( $, .METRE. ) );
#56 =( CONVERSION_BASED_UNIT ( 'INCH', #21 ) LENGTH_UNIT ( ) NAMED_UNIT ( #46 ) );
#57 =( NAMED_UNIT ( * ) PLANE_ANGLE_UNIT ( ) SI_UNIT ( $, .RADIAN. ) );
#58 =( NAMED_UNIT ( * ) SI_UNIT ( $, .STERADIAN. ) SOLID_ANGLE_UNIT ( ) );
#59 = CARTESIAN_POINT ( 'NONE',  ( 0.0000000000000000000, 0.0000000000000000000, 0.0000000000000000000 ) ) ;
#60 = DIRECTION ( 'NONE',  ( 0.0000000000000000000, 0.0000000000000000000, 1.000000000000000000 ) ) ;
#61 = DIRECTION ( 'NONE',  ( 1.000000000000000000, 0.0000000000000000000, 0.0000000000000000000 ) ) ;
#62 = SHAPE_DEFINITION_REPRESENTATION ( #31, #4 ) ;
#63 = PRODUCT_CONTEXT ( 'NONE', #135, 'mechanical' ) ;
#64 = APPLICATION_PROTOCOL_DEFINITION ( 'draft international standard', 'automotive_design', 1998, #136 ) ;
#65 =( CONVERSION_BASED_UNIT ( 'INCH', #7 ) LENGTH_UNIT ( ) NAMED_UNIT ( #45 ) );
#66 =( NAMED_UNIT ( * ) PLANE_ANGLE_UNIT ( ) SI_UNIT ( $, .RADIAN. ) );
#67 =( NAMED_UNIT ( * ) SI_UNIT ( $, .STERADIAN. ) SOLID_ANGLE_UNIT ( ) );
#68 = PLANE ( 'NONE',  #22 ) ;
#69 = CARTESIAN_POINT ( 'NONE',  ( 0.0000000000000000000, 0.2500000000000000000, 0.0000000000000000000 ) ) ;
#70 = DIRECTION ( 'NONE',  ( 0.0000000000000000000, 1.000000000000000000, 0.0000000000000000000 ) ) ;
#71 = DIRECTION ( 'NONE',  ( 0.0000000000000000000, -0.0000000000000000000, 1.000000000000000000 ) ) ;
#72 = CARTESIAN_POINT ( 'NONE',  ( 0.0000000000000000000, 0.2500000000000000000, 0.0000000000000000000 ) ) ;
#73 = DIRECTION ( 'NONE',  ( -0.0000000000000000000, -1.000000000000000000, -0.0000000000000000000 ) ) ;
#74 = DIRECTION ( 'NONE',  ( 0.0000000000000000000, 0.0000000000000000000, -1.000000000000000000 ) ) ;
#75 = CARTESIAN_POINT ( 'NONE',  ( 0.0000000000000000000, 0.2500000000000000000, 0.0000000000000000000 ) ) ;
#76 = DIRECTION ( 'NONE',  ( -0.0000000000000000000, -1.000000000000000000, -0.0000000000000000000 ) ) ;
#77 = DIRECTION ( 'NONE',  ( 0.0000000000000000000, 0.0000000000000000000, -1.000000000000000000 ) ) ;
#78 = CARTESIAN_POINT ( 'NONE',  ( 3.827021247335475700E-018, 0.0000000000000000000, 0.03124999999999997600 ) ) ;
#79 = CARTESIAN_POINT ( 'NONE',  ( 3.827021247335475700E-018, 0.2500000000000000000, 0.03124999999999997600 ) ) ;
#80 = CARTESIAN_POINT ( 'NONE',  ( 0.0000000000000000000, 0.2500000000000000000, -0.03124999999999997600 ) ) ;
#81 = CARTESIAN_POINT ( 'NONE',  ( 0.0000000000000000000, 0.0000000000000000000, -0.03124999999999997600 ) ) ;
#82 =( LENGTH_UNIT ( ) NAMED_UNIT ( * ) SI_UNIT ( $, .METRE. ) );
#83 =( CONVERSION_BASED_UNIT ( 'INCH', #20 ) LENGTH_UNIT ( ) NAMED_UNIT ( #44 ) );
#84 =( NAMED_UNIT ( * ) PLANE_ANGLE_UNIT ( ) SI_UNIT ( $, .RADIAN. ) );
#85 =( NAMED_UNIT ( * ) SI_UNIT ( $, .STERADIAN. ) SOLID_ANGLE_UNIT ( ) );
#86 = ORIENTED_EDGE ( 'NONE', *, *, #10, .T. ) ;
#87 = ORIENTED_EDGE ( 'NONE', *, *, #14, .T. ) ;
#88 = ORIENTED_EDGE ( 'NONE', *, *, #11, .F. ) ;
#89 = ORIENTED_EDGE ( 'NONE', *, *, #14, .F. ) ;
#90 = ORIENTED_EDGE ( 'NONE', *, *, #11, .T. ) ;
#91 = ORIENTED_EDGE ( 'NONE', *, *, #12, .F. ) ;
#92 = ORIENTED_EDGE ( 'NONE', *, *, #15, .F. ) ;
#93 = ORIENTED_EDGE ( 'NONE', *, *, #13, .T. ) ;
#94 = ORIENTED_EDGE ( 'NONE', *, *, #12, .T. ) ;
#95 = ORIENTED_EDGE ( 'NONE', *, *, #15, .T. ) ;
#96 = ORIENTED_EDGE ( 'NONE', *, *, #13, .F. ) ;
#97 = ORIENTED_EDGE ( 'NONE', *, *, #10, .F. ) ;
#98 = EDGE_LOOP ( 'NONE', ( #89, #91, #90, #93 ) ) ;
#99 = EDGE_LOOP ( 'NONE', ( #92, #87, #86, #88 ) ) ;
#100 = EDGE_LOOP ( 'NONE', ( #94, #95 ) ) ;
#101 = EDGE_LOOP ( 'NONE', ( #96, #97 ) ) ;
#102 = VERTEX_POINT ( 'NONE', #78 ) ;
#103 = VERTEX_POINT ( 'NONE', #79 ) ;
#104 = VERTEX_POINT ( 'NONE', #80 ) ;
#105 = VERTEX_POINT ( 'NONE', #81 ) ;
#106 = CARTESIAN_POINT ( 'NONE',  ( 0.0000000000000000000, 0.0000000000000000000, 0.0000000000000000000 ) ) ;
#107 = DIRECTION ( 'NONE',  ( 0.0000000000000000000, 1.000000000000000000, 0.0000000000000000000 ) ) ;
#108 = DIRECTION ( 'NONE',  ( 0.0000000000000000000, 0.0000000000000000000, 1.000000000000000000 ) ) ;
#109 = CARTESIAN_POINT ( 'NONE',  ( 0.0000000000000000000, 0.2500000000000000000, 0.0000000000000000000 ) ) ;
#110 = LINE ( 'NONE', #111, #140 ) ;
#111 = CARTESIAN_POINT ( 'NONE',  ( 0.0000000000000000000, 0.2500000000000000000, -0.03124999999999997600 ) ) ;
#112 = DIRECTION ( 'NONE',  ( -0.0000000000000000000, -1.000000000000000000, -0.0000000000000000000 ) ) ;
#113 = DIRECTION ( 'NONE',  ( 0.0000000000000000000, 1.000000000000000000, 0.0000000000000000000 ) ) ;
#114 = DIRECTION ( 'NONE',  ( 0.0000000000000000000, 0.0000000000000000000, 1.000000000000000000 ) ) ;
#115 = CARTESIAN_POINT ( 'NONE',  ( 0.0000000000000000000, 0.0000000000000000000, 0.0000000000000000000 ) ) ;
#116 = DIRECTION ( 'NONE',  ( 0.0000000000000000000, 1.000000000000000000, 0.0000000000000000000 ) ) ;
#117 = DIRECTION ( 'NONE',  ( 0.0000000000000000000, 0.0000000000000000000, 1.000000000000000000 ) ) ;
#118 = CARTESIAN_POINT ( 'NONE',  ( 0.0000000000000000000, 0.2500000000000000000, 0.0000000000000000000 ) ) ;
#119 = LINE ( 'NONE', #120, #139 ) ;
#120 = CARTESIAN_POINT ( 'NONE',  ( 3.827021247335475700E-018, 0.2500000000000000000, 0.03124999999999997600 ) ) ;
#121 = DIRECTION ( 'NONE',  ( -0.0000000000000000000, -1.000000000000000000, -0.0000000000000000000 ) ) ;
#122 = DIRECTION ( 'NONE',  ( 0.0000000000000000000, 1.000000000000000000, 0.0000000000000000000 ) ) ;
#123 = DIRECTION ( 'NONE',  ( 0.0000000000000000000, 0.0000000000000000000, 1.000000000000000000 ) ) ;
#124 = PLANE ( 'NONE',  #145 ) ;
#125 = CARTESIAN_POINT ( 'NONE',  ( 0.0000000000000000000, 0.0000000000000000000, 0.0000000000000000000 ) ) ;
#126 = DIRECTION ( 'NONE',  ( 0.0000000000000000000, 1.000000000000000000, 0.0000000000000000000 ) ) ;
#127 = DIRECTION ( 'NONE',  ( 0.0000000000000000000, -0.0000000000000000000, 1.000000000000000000 ) ) ;
#128 = FILL_AREA_STYLE_COLOUR ( '', #40 ) ;
#129 = FILL_AREA_STYLE ('',( #128 ) ) ;
#130 = SURFACE_STYLE_FILL_AREA ( #129 ) ;
#131 = SURFACE_SIDE_STYLE ('',( #130 ) ) ;
#132 = SURFACE_STYLE_USAGE ( .BOTH. , #131 ) ;
#133 = PRESENTATION_STYLE_ASSIGNMENT (( #132 ) ) ;
#134 =( LENGTH_UNIT ( ) NAMED_UNIT ( * ) SI_UNIT ( $, .METRE. ) );
#135 = APPLICATION_CONTEXT ( 'automotive_design' ) ;
#136 = APPLICATION_CONTEXT ( 'automotive_design' ) ;
#137 = PRODUCT_DEFINITION_FORMATION_WITH_SPECIFIED_SOURCE ( 'ANY', '', #47, .NOT_KNOWN. ) ;
#138 = AXIS2_PLACEMENT_3D ( 'NONE', #115, #116, #117 ) ;
#139 = VECTOR ( 'NONE', #121, 39.37007874015748100 ) ;
#140 = VECTOR ( 'NONE', #112, 39.37007874015748100 ) ;
#141 = AXIS2_PLACEMENT_3D ( 'NONE', #109, #113, #114 ) ;
#142 = CYLINDRICAL_SURFACE ( 'NONE', #148, 0.03124999999999997600 ) ;
#143 = AXIS2_PLACEMENT_3D ( 'NONE', #118, #122, #123 ) ;
#144 = STYLED_ITEM ( 'NONE', ( #133 ), #30 ) ;
#145 = AXIS2_PLACEMENT_3D ( 'NONE', #125, #126, #127 ) ;
#146 = FACE_OUTER_BOUND ( 'NONE', #101, .T. ) ;
#147 = CLOSED_SHELL ( 'NONE', ( #36, #35, #34, #27 ) ) ;
#148 = AXIS2_PLACEMENT_3D ( 'NONE', #72, #73, #74 ) ;
#149 = AXIS2_PLACEMENT_3D ( 'NONE', #106, #107, #108 ) ;
ENDSEC;
END-ISO-10303-21;
