ISO-10303-21;
HEADER;
FILE_DESCRIPTION (( 'STEP AP214' ),
    '1' );
FILE_NAME ('R250B-DM.step',
    '2012-04-20T21:05:12',
    ( '' ),
    ( '' ),
    'SwSTEP 2.0',
    'SolidWorks 2012',
    '' );
FILE_SCHEMA (( 'AUTOMOTIVE_DESIGN' ));
ENDSEC;

DATA;
#1 = UNCERTAINTY_MEASURE_WITH_UNIT (LENGTH_MEASURE( 1.000000000000000100E-005 ), #56, 'distance_accuracy_value', 'NONE');
#2 = UNCERTAINTY_MEASURE_WITH_UNIT (LENGTH_MEASURE( 1.000000000000000100E-005 ), #129, 'distance_accuracy_value', 'NONE');
#3 = UNCERTAINTY_MEASURE_WITH_UNIT (LENGTH_MEASURE( 1.000000000000000100E-005 ), #99, 'distance_accuracy_value', 'NONE');
#4 = ADVANCED_BREP_SHAPE_REPRESENTATION ( 'R250B-DM', ( #42, #132 ), #12 ) ;
#5 = PRESENTATION_LAYER_ASSIGNMENT (  '', '', ( #8 ) ) ;
#6 = AXIS2_PLACEMENT_3D ( 'NONE', #116, #117, #118 ) ;
#7 = LENGTH_MEASURE_WITH_UNIT ( LENGTH_MEASURE( 0.02539999999999999900 ), #128 );
#8 = STYLED_ITEM ( 'NONE', ( #127 ), #42 ) ;
#9 = MECHANICAL_DESIGN_GEOMETRIC_PRESENTATION_REPRESENTATION (  '', ( #8 ), #11 ) ;
#10 = FACE_OUTER_BOUND ( 'NONE', #101, .T. ) ;
#11 =( GEOMETRIC_REPRESENTATION_CONTEXT ( 3 ) GLOBAL_UNCERTAINTY_ASSIGNED_CONTEXT ( ( #2 ) ) GLOBAL_UNIT_ASSIGNED_CONTEXT ( ( #129, #74, #75 ) ) REPRESENTATION_CONTEXT ( 'NONE', 'WORKASPACE' ) );
#12 =( GEOMETRIC_REPRESENTATION_CONTEXT ( 3 ) GLOBAL_UNCERTAINTY_ASSIGNED_CONTEXT ( ( #3 ) ) GLOBAL_UNIT_ASSIGNED_CONTEXT ( ( #99, #47, #48 ) ) REPRESENTATION_CONTEXT ( 'NONE', 'WORKASPACE' ) );
#13 = ADVANCED_FACE ( 'NONE', ( #136 ), #139, .T. ) ;
#14 = DIMENSIONAL_EXPONENTS ( 1.000000000000000000, 0.0000000000000000000, 0.0000000000000000000, 0.0000000000000000000, 0.0000000000000000000, 0.0000000000000000000, 0.0000000000000000000 ) ;
#15 = DIMENSIONAL_EXPONENTS ( 1.000000000000000000, 0.0000000000000000000, 0.0000000000000000000, 0.0000000000000000000, 0.0000000000000000000, 0.0000000000000000000, 0.0000000000000000000 ) ;
#16 = DIMENSIONAL_EXPONENTS ( 1.000000000000000000, 0.0000000000000000000, 0.0000000000000000000, 0.0000000000000000000, 0.0000000000000000000, 0.0000000000000000000, 0.0000000000000000000 ) ;
#17 = PRODUCT ( 'R250B-DM', 'R250B-DM', '', ( #45 ) ) ;
#18 = LENGTH_MEASURE_WITH_UNIT ( LENGTH_MEASURE( 0.02539999999999999900 ), #98 );
#19 = PRESENTATION_LAYER_ASSIGNMENT (  '', '', ( #21 ) ) ;
#20 = VECTOR ( 'NONE', #82, 39.37007874015748100 ) ;
#21 = STYLED_ITEM ( 'NONE', ( #54 ), #4 ) ;
#22 = VECTOR ( 'NONE', #92, 39.37007874015748100 ) ;
#23 = MECHANICAL_DESIGN_GEOMETRIC_PRESENTATION_REPRESENTATION (  '', ( #21 ), #28 ) ;
#24 = AXIS2_PLACEMENT_3D ( 'NONE', #83, #84, #85 ) ;
#25 = AXIS2_PLACEMENT_3D ( 'NONE', #89, #93, #94 ) ;
#26 = AXIS2_PLACEMENT_3D ( 'NONE', #86, #87, #88 ) ;
#27 = AXIS2_PLACEMENT_3D ( 'NONE', #95, #96, #97 ) ;
#28 =( GEOMETRIC_REPRESENTATION_CONTEXT ( 3 ) GLOBAL_UNCERTAINTY_ASSIGNED_CONTEXT ( ( #1 ) ) GLOBAL_UNIT_ASSIGNED_CONTEXT ( ( #56, #57, #58 ) ) REPRESENTATION_CONTEXT ( 'NONE', 'WORKASPACE' ) );
#29 = ADVANCED_FACE ( 'NONE', ( #137 ), #111, .F. ) ;
#30 = ADVANCED_FACE ( 'NONE', ( #141 ), #115, .T. ) ;
#31 = ADVANCED_FACE ( 'NONE', ( #10 ), #142, .T. ) ;
#32 = COLOUR_RGB ( '',0.5686274509803921400, 0.5686274509803921400, 0.5882352941176470800 ) ;
#33 = CIRCLE ( 'NONE', #26, 0.1250000000000000000 ) ;
#34 = CIRCLE ( 'NONE', #24, 0.1250000000000000000 ) ;
#35 = COLOUR_RGB ( '',0.5686274509803921400, 0.5686274509803921400, 0.5882352941176470800 ) ;
#36 = CIRCLE ( 'NONE', #27, 0.1250000000000000000 ) ;
#37 = CIRCLE ( 'NONE', #25, 0.1250000000000000000 ) ;
#38 = PRODUCT_DEFINITION ( 'UNKNOWN', '', #134, #41 ) ;
#39 = PRODUCT_RELATED_PRODUCT_CATEGORY ( 'part', '', ( #17 ) ) ;
#40 = PRODUCT_DEFINITION_SHAPE ( 'NONE', 'NONE',  #38 ) ;
#41 = PRODUCT_DEFINITION_CONTEXT ( 'detailed design', #131, 'design' ) ;
#42 = MANIFOLD_SOLID_BREP ( 'Boss-Extrude1', #135 ) ;
#43 = SHAPE_DEFINITION_REPRESENTATION ( #40, #4 ) ;
#44 = APPLICATION_PROTOCOL_DEFINITION ( 'draft international standard', 'automotive_design', 1998, #130 ) ;
#45 = PRODUCT_CONTEXT ( 'NONE', #130, 'mechanical' ) ;
#46 = APPLICATION_PROTOCOL_DEFINITION ( 'draft international standard', 'automotive_design', 1998, #131 ) ;
#47 =( NAMED_UNIT ( * ) PLANE_ANGLE_UNIT ( ) SI_UNIT ( $, .RADIAN. ) );
#48 =( NAMED_UNIT ( * ) SI_UNIT ( $, .STERADIAN. ) SOLID_ANGLE_UNIT ( ) );
#49 = FILL_AREA_STYLE_COLOUR ( '', #35 ) ;
#50 = FILL_AREA_STYLE ('',( #49 ) ) ;
#51 = SURFACE_STYLE_FILL_AREA ( #50 ) ;
#52 = SURFACE_SIDE_STYLE ('',( #51 ) ) ;
#53 = SURFACE_STYLE_USAGE ( .BOTH. , #52 ) ;
#54 = PRESENTATION_STYLE_ASSIGNMENT (( #53 ) ) ;
#55 =( LENGTH_UNIT ( ) NAMED_UNIT ( * ) SI_UNIT ( $, .METRE. ) );
#56 =( CONVERSION_BASED_UNIT ( 'INCH', #133 ) LENGTH_UNIT ( ) NAMED_UNIT ( #16 ) );
#57 =( NAMED_UNIT ( * ) PLANE_ANGLE_UNIT ( ) SI_UNIT ( $, .RADIAN. ) );
#58 =( NAMED_UNIT ( * ) SI_UNIT ( $, .STERADIAN. ) SOLID_ANGLE_UNIT ( ) );
#59 = CARTESIAN_POINT ( 'NONE',  ( 0.0000000000000000000, 0.0000000000000000000, 0.0000000000000000000 ) ) ;
#60 = DIRECTION ( 'NONE',  ( 0.0000000000000000000, 0.0000000000000000000, 1.000000000000000000 ) ) ;
#61 = DIRECTION ( 'NONE',  ( 1.000000000000000000, 0.0000000000000000000, 0.0000000000000000000 ) ) ;
#62 = ORIENTED_EDGE ( 'NONE', *, *, #149, .T. ) ;
#63 = ORIENTED_EDGE ( 'NONE', *, *, #148, .T. ) ;
#64 = ORIENTED_EDGE ( 'NONE', *, *, #145, .T. ) ;
#65 = ORIENTED_EDGE ( 'NONE', *, *, #149, .F. ) ;
#66 = ORIENTED_EDGE ( 'NONE', *, *, #146, .F. ) ;
#67 = VERTEX_POINT ( 'NONE', #76 ) ;
#68 = ORIENTED_EDGE ( 'NONE', *, *, #145, .F. ) ;
#69 = ORIENTED_EDGE ( 'NONE', *, *, #146, .T. ) ;
#70 = ORIENTED_EDGE ( 'NONE', *, *, #144, .T. ) ;
#71 = ORIENTED_EDGE ( 'NONE', *, *, #147, .F. ) ;
#72 = ORIENTED_EDGE ( 'NONE', *, *, #144, .F. ) ;
#73 = ORIENTED_EDGE ( 'NONE', *, *, #147, .T. ) ;
#74 =( NAMED_UNIT ( * ) PLANE_ANGLE_UNIT ( ) SI_UNIT ( $, .RADIAN. ) );
#75 =( NAMED_UNIT ( * ) SI_UNIT ( $, .STERADIAN. ) SOLID_ANGLE_UNIT ( ) );
#76 = CARTESIAN_POINT ( 'NONE',  ( 0.0000000000000000000, 0.0000000000000000000, -0.1250000000000000000 ) ) ;
#77 = CARTESIAN_POINT ( 'NONE',  ( 1.530808498934191500E-017, 0.2500000000000000000, 0.1250000000000000000 ) ) ;
#78 = CARTESIAN_POINT ( 'NONE',  ( 0.0000000000000000000, 0.2500000000000000000, -0.1250000000000000000 ) ) ;
#79 = CARTESIAN_POINT ( 'NONE',  ( 1.530808498934191500E-017, 0.0000000000000000000, 0.1250000000000000000 ) ) ;
#80 = LINE ( 'NONE', #81, #20 ) ;
#81 = CARTESIAN_POINT ( 'NONE',  ( 1.530808498934191500E-017, 0.2500000000000000000, 0.1250000000000000000 ) ) ;
#82 = DIRECTION ( 'NONE',  ( -0.0000000000000000000, -1.000000000000000000, -0.0000000000000000000 ) ) ;
#83 = CARTESIAN_POINT ( 'NONE',  ( 0.0000000000000000000, 0.2500000000000000000, 0.0000000000000000000 ) ) ;
#84 = DIRECTION ( 'NONE',  ( 0.0000000000000000000, 1.000000000000000000, 0.0000000000000000000 ) ) ;
#85 = DIRECTION ( 'NONE',  ( 0.0000000000000000000, 0.0000000000000000000, 1.000000000000000000 ) ) ;
#86 = CARTESIAN_POINT ( 'NONE',  ( 0.0000000000000000000, 0.0000000000000000000, 0.0000000000000000000 ) ) ;
#87 = DIRECTION ( 'NONE',  ( 0.0000000000000000000, 1.000000000000000000, 0.0000000000000000000 ) ) ;
#88 = DIRECTION ( 'NONE',  ( 0.0000000000000000000, 0.0000000000000000000, 1.000000000000000000 ) ) ;
#89 = CARTESIAN_POINT ( 'NONE',  ( 0.0000000000000000000, 0.2500000000000000000, 0.0000000000000000000 ) ) ;
#90 = LINE ( 'NONE', #91, #22 ) ;
#91 = CARTESIAN_POINT ( 'NONE',  ( 0.0000000000000000000, 0.2500000000000000000, -0.1250000000000000000 ) ) ;
#92 = DIRECTION ( 'NONE',  ( -0.0000000000000000000, -1.000000000000000000, -0.0000000000000000000 ) ) ;
#93 = DIRECTION ( 'NONE',  ( 0.0000000000000000000, 1.000000000000000000, 0.0000000000000000000 ) ) ;
#94 = DIRECTION ( 'NONE',  ( 0.0000000000000000000, 0.0000000000000000000, 1.000000000000000000 ) ) ;
#95 = CARTESIAN_POINT ( 'NONE',  ( 0.0000000000000000000, 0.0000000000000000000, 0.0000000000000000000 ) ) ;
#96 = DIRECTION ( 'NONE',  ( 0.0000000000000000000, 1.000000000000000000, 0.0000000000000000000 ) ) ;
#97 = DIRECTION ( 'NONE',  ( 0.0000000000000000000, 0.0000000000000000000, 1.000000000000000000 ) ) ;
#98 =( LENGTH_UNIT ( ) NAMED_UNIT ( * ) SI_UNIT ( $, .METRE. ) );
#99 =( CONVERSION_BASED_UNIT ( 'INCH', #18 ) LENGTH_UNIT ( ) NAMED_UNIT ( #14 ) );
#100 = ORIENTED_EDGE ( 'NONE', *, *, #148, .F. ) ;
#101 = EDGE_LOOP ( 'NONE', ( #72, #100, #73, #62 ) ) ;
#102 = EDGE_LOOP ( 'NONE', ( #68, #70, #69, #71 ) ) ;
#103 = EDGE_LOOP ( 'NONE', ( #63, #64 ) ) ;
#104 = EDGE_LOOP ( 'NONE', ( #65, #66 ) ) ;
#105 = VERTEX_POINT ( 'NONE', #77 ) ;
#106 = VERTEX_POINT ( 'NONE', #78 ) ;
#107 = VERTEX_POINT ( 'NONE', #79 ) ;
#108 = CARTESIAN_POINT ( 'NONE',  ( 0.0000000000000000000, 0.2500000000000000000, 0.0000000000000000000 ) ) ;
#109 = DIRECTION ( 'NONE',  ( -0.0000000000000000000, -1.000000000000000000, -0.0000000000000000000 ) ) ;
#110 = DIRECTION ( 'NONE',  ( 0.0000000000000000000, 0.0000000000000000000, -1.000000000000000000 ) ) ;
#111 = PLANE ( 'NONE',  #143 ) ;
#112 = CARTESIAN_POINT ( 'NONE',  ( 0.0000000000000000000, 0.0000000000000000000, 0.0000000000000000000 ) ) ;
#113 = DIRECTION ( 'NONE',  ( 0.0000000000000000000, 1.000000000000000000, 0.0000000000000000000 ) ) ;
#114 = DIRECTION ( 'NONE',  ( 0.0000000000000000000, -0.0000000000000000000, 1.000000000000000000 ) ) ;
#115 = PLANE ( 'NONE',  #6 ) ;
#116 = CARTESIAN_POINT ( 'NONE',  ( 0.0000000000000000000, 0.2500000000000000000, 0.0000000000000000000 ) ) ;
#117 = DIRECTION ( 'NONE',  ( 0.0000000000000000000, 1.000000000000000000, 0.0000000000000000000 ) ) ;
#118 = DIRECTION ( 'NONE',  ( 0.0000000000000000000, -0.0000000000000000000, 1.000000000000000000 ) ) ;
#119 = CARTESIAN_POINT ( 'NONE',  ( 0.0000000000000000000, 0.2500000000000000000, 0.0000000000000000000 ) ) ;
#120 = DIRECTION ( 'NONE',  ( -0.0000000000000000000, -1.000000000000000000, -0.0000000000000000000 ) ) ;
#121 = DIRECTION ( 'NONE',  ( 0.0000000000000000000, 0.0000000000000000000, -1.000000000000000000 ) ) ;
#122 = FILL_AREA_STYLE_COLOUR ( '', #32 ) ;
#123 = FILL_AREA_STYLE ('',( #122 ) ) ;
#124 = SURFACE_STYLE_FILL_AREA ( #123 ) ;
#125 = SURFACE_SIDE_STYLE ('',( #124 ) ) ;
#126 = SURFACE_STYLE_USAGE ( .BOTH. , #125 ) ;
#127 = PRESENTATION_STYLE_ASSIGNMENT (( #126 ) ) ;
#128 =( LENGTH_UNIT ( ) NAMED_UNIT ( * ) SI_UNIT ( $, .METRE. ) );
#129 =( CONVERSION_BASED_UNIT ( 'INCH', #7 ) LENGTH_UNIT ( ) NAMED_UNIT ( #15 ) );
#130 = APPLICATION_CONTEXT ( 'automotive_design' ) ;
#131 = APPLICATION_CONTEXT ( 'automotive_design' ) ;
#132 = AXIS2_PLACEMENT_3D ( 'NONE', #59, #60, #61 ) ;
#133 = LENGTH_MEASURE_WITH_UNIT ( LENGTH_MEASURE( 0.02539999999999999900 ), #55 );
#134 = PRODUCT_DEFINITION_FORMATION_WITH_SPECIFIED_SOURCE ( 'ANY', '', #17, .NOT_KNOWN. ) ;
#135 = CLOSED_SHELL ( 'NONE', ( #13, #31, #30, #29 ) ) ;
#136 = FACE_OUTER_BOUND ( 'NONE', #102, .T. ) ;
#137 = FACE_OUTER_BOUND ( 'NONE', #104, .T. ) ;
#138 = AXIS2_PLACEMENT_3D ( 'NONE', #119, #120, #121 ) ;
#139 = CYLINDRICAL_SURFACE ( 'NONE', #140, 0.1250000000000000000 ) ;
#140 = AXIS2_PLACEMENT_3D ( 'NONE', #108, #109, #110 ) ;
#141 = FACE_OUTER_BOUND ( 'NONE', #103, .T. ) ;
#142 = CYLINDRICAL_SURFACE ( 'NONE', #138, 0.1250000000000000000 ) ;
#143 = AXIS2_PLACEMENT_3D ( 'NONE', #112, #113, #114 ) ;
#144 = EDGE_CURVE ( 'NONE', #105, #107, #80, .T. ) ;
#145 = EDGE_CURVE ( 'NONE', #105, #106, #34, .T. ) ;
#146 = EDGE_CURVE ( 'NONE', #107, #67, #33, .T. ) ;
#147 = EDGE_CURVE ( 'NONE', #106, #67, #90, .T. ) ;
#148 = EDGE_CURVE ( 'NONE', #106, #105, #37, .T. ) ;
#149 = EDGE_CURVE ( 'NONE', #67, #107, #36, .T. ) ;
ENDSEC;
END-ISO-10303-21;
