ISO-10303-21;
HEADER;
FILE_DESCRIPTION (( 'STEP AP214' ),
    '1' );
FILE_NAME ('R250B-M.step',
    '2012-04-20T21:05:15',
    ( '' ),
    ( '' ),
    'SwSTEP 2.0',
    'SolidWorks 2012',
    '' );
FILE_SCHEMA (( 'AUTOMOTIVE_DESIGN' ));
ENDSEC;

DATA;
#1 = EDGE_CURVE ( 'NONE', #158, #160, #44, .T. ) ;
#2 = EDGE_CURVE ( 'NONE', #161, #162, #48, .T. ) ;
#3 = CIRCLE ( 'NONE', #184, 0.05424508571490565400 ) ;
#4 = EDGE_CURVE ( 'NONE', #159, #164, #51, .T. ) ;
#5 = EDGE_CURVE ( 'NONE', #158, #161, #3, .T. ) ;
#6 = EDGE_CURVE ( 'NONE', #160, #162, #200, .T. ) ;
#7 = MECHANICAL_DESIGN_GEOMETRIC_PRESENTATION_REPRESENTATION (  '', ( #176 ), #152 ) ;
#8 = FACE_OUTER_BOUND ( 'NONE', #42, .T. ) ;
#9 = FACE_OUTER_BOUND ( 'NONE', #169, .T. ) ;
#10 = FACE_OUTER_BOUND ( 'NONE', #39, .T. ) ;
#11 = STYLED_ITEM ( 'NONE', ( #100 ), #195 ) ;
#12 = FACE_OUTER_BOUND ( 'NONE', #41, .T. ) ;
#13 = AXIS2_PLACEMENT_3D ( 'NONE', #106, #107, #108 ) ;
#14 = CYLINDRICAL_SURFACE ( 'NONE', #16, 0.1250000000000000000 ) ;
#15 = PRESENTATION_LAYER_ASSIGNMENT (  '', '', ( #11 ) ) ;
#16 = AXIS2_PLACEMENT_3D ( 'NONE', #88, #89, #90 ) ;
#17 = FACE_OUTER_BOUND ( 'NONE', #40, .T. ) ;
#18 = MECHANICAL_DESIGN_GEOMETRIC_PRESENTATION_REPRESENTATION (  '', ( #11 ), #155 ) ;
#19 = LENGTH_MEASURE_WITH_UNIT ( LENGTH_MEASURE( 0.02539999999999999900 ), #101 );
#20 = AXIS2_PLACEMENT_3D ( 'NONE', #92, #93, #94 ) ;
#21 = ORIENTED_EDGE ( 'NONE', *, *, #4, .T. ) ;
#22 = ORIENTED_EDGE ( 'NONE', *, *, #188, .F. ) ;
#23 = ORIENTED_EDGE ( 'NONE', *, *, #189, .T. ) ;
#24 = ORIENTED_EDGE ( 'NONE', *, *, #190, .F. ) ;
#25 = ORIENTED_EDGE ( 'NONE', *, *, #186, .T. ) ;
#26 = ORIENTED_EDGE ( 'NONE', *, *, #191, .T. ) ;
#27 = ORIENTED_EDGE ( 'NONE', *, *, #6, .F. ) ;
#28 = ORIENTED_EDGE ( 'NONE', *, *, #4, .F. ) ;
#29 = ORIENTED_EDGE ( 'NONE', *, *, #189, .F. ) ;
#30 = ORIENTED_EDGE ( 'NONE', *, *, #188, .T. ) ;
#31 = ORIENTED_EDGE ( 'NONE', *, *, #2, .T. ) ;
#32 = ORIENTED_EDGE ( 'NONE', *, *, #191, .F. ) ;
#33 = ORIENTED_EDGE ( 'NONE', *, *, #187, .F. ) ;
#34 = ORIENTED_EDGE ( 'NONE', *, *, #1, .F. ) ;
#35 = ORIENTED_EDGE ( 'NONE', *, *, #192, .F. ) ;
#36 = ORIENTED_EDGE ( 'NONE', *, *, #186, .F. ) ;
#37 = EDGE_LOOP ( 'NONE', ( #170, #172, #171, #173 ) ) ;
#38 = EDGE_LOOP ( 'NONE', ( #36, #21, #174, #22 ) ) ;
#39 = EDGE_LOOP ( 'NONE', ( #34, #35, #31, #166 ) ) ;
#40 = EDGE_LOOP ( 'NONE', ( #28, #29, #30, #26 ) ) ;
#41 = EDGE_LOOP ( 'NONE', ( #32, #33 ) ) ;
#42 = EDGE_LOOP ( 'NONE', ( #23, #25 ) ) ;
#43 = EDGE_LOOP ( 'NONE', ( #24, #27 ) ) ;
#44 = LINE ( 'NONE', #45, #238 ) ;
#45 = CARTESIAN_POINT ( 'NONE',  ( 6.643107059023302600E-018, 0.2500999999999999900, 0.05424508571490565400 ) ) ;
#46 = DIRECTION ( 'NONE',  ( -0.0000000000000000000, -1.000000000000000000, -0.0000000000000000000 ) ) ;
#47 = CARTESIAN_POINT ( 'NONE',  ( 0.0000000000000000000, 0.2500999999999999900, 0.0000000000000000000 ) ) ;
#48 = LINE ( 'NONE', #49, #243 ) ;
#49 = CARTESIAN_POINT ( 'NONE',  ( 0.0000000000000000000, 0.2500999999999999900, -0.05424508571490565400 ) ) ;
#50 = DIRECTION ( 'NONE',  ( -0.0000000000000000000, -1.000000000000000000, -0.0000000000000000000 ) ) ;
#51 = LINE ( 'NONE', #52, #183 ) ;
#52 = CARTESIAN_POINT ( 'NONE',  ( 1.530808498934191500E-017, 0.2500000000000000000, 0.1250000000000000000 ) ) ;
#53 = DIRECTION ( 'NONE',  ( -0.0000000000000000000, -1.000000000000000000, -0.0000000000000000000 ) ) ;
#54 = DIRECTION ( 'NONE',  ( 0.0000000000000000000, 1.000000000000000000, 0.0000000000000000000 ) ) ;
#55 = DIRECTION ( 'NONE',  ( 0.0000000000000000000, 0.0000000000000000000, 1.000000000000000000 ) ) ;
#56 = CARTESIAN_POINT ( 'NONE',  ( 0.0000000000000000000, 0.2500000000000000000, 0.0000000000000000000 ) ) ;
#57 = DIRECTION ( 'NONE',  ( 0.0000000000000000000, 1.000000000000000000, 0.0000000000000000000 ) ) ;
#58 = DIRECTION ( 'NONE',  ( 0.0000000000000000000, 0.0000000000000000000, 1.000000000000000000 ) ) ;
#59 = CARTESIAN_POINT ( 'NONE',  ( 6.643107059023302600E-018, 0.2500999999999999900, 0.05424508571490565400 ) ) ;
#60 = CARTESIAN_POINT ( 'NONE',  ( 1.530808498934191500E-017, 0.2500000000000000000, 0.1250000000000000000 ) ) ;
#61 = CARTESIAN_POINT ( 'NONE',  ( 6.643107059023302600E-018, 0.2500000000000000000, 0.05424508571490565400 ) ) ;
#62 = CARTESIAN_POINT ( 'NONE',  ( 0.0000000000000000000, 0.2500999999999999900, -0.05424508571490565400 ) ) ;
#63 = CARTESIAN_POINT ( 'NONE',  ( 0.0000000000000000000, 0.2500000000000000000, -0.05424508571490565400 ) ) ;
#64 = CARTESIAN_POINT ( 'NONE',  ( 0.0000000000000000000, 0.2500000000000000000, -0.1250000000000000000 ) ) ;
#65 = CARTESIAN_POINT ( 'NONE',  ( 1.530808498934191500E-017, 0.0000000000000000000, 0.1250000000000000000 ) ) ;
#66 = CARTESIAN_POINT ( 'NONE',  ( 0.0000000000000000000, 0.0000000000000000000, -0.1250000000000000000 ) ) ;
#67 = CARTESIAN_POINT ( 'NONE',  ( 0.0000000000000000000, 0.2500000000000000000, 0.0000000000000000000 ) ) ;
#68 = DIRECTION ( 'NONE',  ( 0.0000000000000000000, 1.000000000000000000, 0.0000000000000000000 ) ) ;
#69 = DIRECTION ( 'NONE',  ( 0.0000000000000000000, 0.0000000000000000000, 1.000000000000000000 ) ) ;
#70 = CARTESIAN_POINT ( 'NONE',  ( 0.0000000000000000000, 0.0000000000000000000, 0.0000000000000000000 ) ) ;
#71 = DIRECTION ( 'NONE',  ( 0.0000000000000000000, 1.000000000000000000, 0.0000000000000000000 ) ) ;
#72 = DIRECTION ( 'NONE',  ( 0.0000000000000000000, 0.0000000000000000000, 1.000000000000000000 ) ) ;
#73 = CARTESIAN_POINT ( 'NONE',  ( 0.0000000000000000000, 0.2500000000000000000, 0.0000000000000000000 ) ) ;
#74 = LINE ( 'NONE', #75, #185 ) ;
#75 = CARTESIAN_POINT ( 'NONE',  ( 0.0000000000000000000, 0.2500000000000000000, -0.1250000000000000000 ) ) ;
#76 = DIRECTION ( 'NONE',  ( -0.0000000000000000000, -1.000000000000000000, -0.0000000000000000000 ) ) ;
#77 = DIRECTION ( 'NONE',  ( 0.0000000000000000000, 1.000000000000000000, 0.0000000000000000000 ) ) ;
#78 = DIRECTION ( 'NONE',  ( 0.0000000000000000000, 0.0000000000000000000, 1.000000000000000000 ) ) ;
#79 = CARTESIAN_POINT ( 'NONE',  ( 0.0000000000000000000, 0.2500000000000000000, 0.0000000000000000000 ) ) ;
#80 = DIRECTION ( 'NONE',  ( 0.0000000000000000000, 1.000000000000000000, 0.0000000000000000000 ) ) ;
#81 = DIRECTION ( 'NONE',  ( 0.0000000000000000000, 0.0000000000000000000, 1.000000000000000000 ) ) ;
#82 = CARTESIAN_POINT ( 'NONE',  ( 0.0000000000000000000, 0.0000000000000000000, 0.0000000000000000000 ) ) ;
#83 = DIRECTION ( 'NONE',  ( 0.0000000000000000000, 1.000000000000000000, 0.0000000000000000000 ) ) ;
#84 = DIRECTION ( 'NONE',  ( 0.0000000000000000000, 0.0000000000000000000, 1.000000000000000000 ) ) ;
#85 = CARTESIAN_POINT ( 'NONE',  ( 0.0000000000000000000, 0.2500999999999999900, 0.0000000000000000000 ) ) ;
#86 = DIRECTION ( 'NONE',  ( 0.0000000000000000000, 1.000000000000000000, 0.0000000000000000000 ) ) ;
#87 = DIRECTION ( 'NONE',  ( 0.0000000000000000000, 0.0000000000000000000, 1.000000000000000000 ) ) ;
#88 = CARTESIAN_POINT ( 'NONE',  ( 0.0000000000000000000, 0.2500000000000000000, 0.0000000000000000000 ) ) ;
#89 = DIRECTION ( 'NONE',  ( -0.0000000000000000000, -1.000000000000000000, -0.0000000000000000000 ) ) ;
#90 = DIRECTION ( 'NONE',  ( 0.0000000000000000000, 0.0000000000000000000, -1.000000000000000000 ) ) ;
#91 = PLANE ( 'NONE',  #20 ) ;
#92 = CARTESIAN_POINT ( 'NONE',  ( 0.0000000000000000000, 0.0000000000000000000, 0.0000000000000000000 ) ) ;
#93 = DIRECTION ( 'NONE',  ( 0.0000000000000000000, 1.000000000000000000, 0.0000000000000000000 ) ) ;
#94 = DIRECTION ( 'NONE',  ( 0.0000000000000000000, -0.0000000000000000000, 1.000000000000000000 ) ) ;
#95 = FILL_AREA_STYLE_COLOUR ( '', #207 ) ;
#96 = FILL_AREA_STYLE ('',( #95 ) ) ;
#97 = SURFACE_STYLE_FILL_AREA ( #96 ) ;
#98 = SURFACE_SIDE_STYLE ('',( #97 ) ) ;
#99 = SURFACE_STYLE_USAGE ( .BOTH. , #98 ) ;
#100 = PRESENTATION_STYLE_ASSIGNMENT (( #99 ) ) ;
#101 =( LENGTH_UNIT ( ) NAMED_UNIT ( * ) SI_UNIT ( $, .METRE. ) );
#102 =( CONVERSION_BASED_UNIT ( 'INCH', #19 ) LENGTH_UNIT ( ) NAMED_UNIT ( #219 ) );
#103 =( NAMED_UNIT ( * ) PLANE_ANGLE_UNIT ( ) SI_UNIT ( $, .RADIAN. ) );
#104 =( NAMED_UNIT ( * ) SI_UNIT ( $, .STERADIAN. ) SOLID_ANGLE_UNIT ( ) );
#105 = PLANE ( 'NONE',  #13 ) ;
#106 = CARTESIAN_POINT ( 'NONE',  ( 0.0000000000000000000, 0.2500999999999999900, 0.0000000000000000000 ) ) ;
#107 = DIRECTION ( 'NONE',  ( 0.0000000000000000000, 1.000000000000000000, 0.0000000000000000000 ) ) ;
#108 = DIRECTION ( 'NONE',  ( 0.0000000000000000000, -0.0000000000000000000, 1.000000000000000000 ) ) ;
#109 = CARTESIAN_POINT ( 'NONE',  ( 0.0000000000000000000, 0.2500999999999999900, 0.0000000000000000000 ) ) ;
#110 = DIRECTION ( 'NONE',  ( -0.0000000000000000000, -1.000000000000000000, -0.0000000000000000000 ) ) ;
#111 = DIRECTION ( 'NONE',  ( 0.0000000000000000000, 0.0000000000000000000, -1.000000000000000000 ) ) ;
#112 = PLANE ( 'NONE',  #237 ) ;
#113 = CARTESIAN_POINT ( 'NONE',  ( 0.0000000000000000000, 0.2500000000000000000, 0.0000000000000000000 ) ) ;
#114 = DIRECTION ( 'NONE',  ( 0.0000000000000000000, 1.000000000000000000, 0.0000000000000000000 ) ) ;
#115 = DIRECTION ( 'NONE',  ( 0.0000000000000000000, -0.0000000000000000000, 1.000000000000000000 ) ) ;
#116 = CARTESIAN_POINT ( 'NONE',  ( 0.0000000000000000000, 0.2500000000000000000, 0.0000000000000000000 ) ) ;
#117 = DIRECTION ( 'NONE',  ( -0.0000000000000000000, -1.000000000000000000, -0.0000000000000000000 ) ) ;
#118 = DIRECTION ( 'NONE',  ( 0.0000000000000000000, 0.0000000000000000000, -1.000000000000000000 ) ) ;
#119 = CARTESIAN_POINT ( 'NONE',  ( 0.0000000000000000000, 0.2500999999999999900, 0.0000000000000000000 ) ) ;
#120 = DIRECTION ( 'NONE',  ( -0.0000000000000000000, -1.000000000000000000, -0.0000000000000000000 ) ) ;
#121 = DIRECTION ( 'NONE',  ( 0.0000000000000000000, 0.0000000000000000000, -1.000000000000000000 ) ) ;
#122 = FILL_AREA_STYLE_COLOUR ( '', #208 ) ;
#123 = FILL_AREA_STYLE ('',( #122 ) ) ;
#124 = SURFACE_STYLE_FILL_AREA ( #123 ) ;
#125 = SURFACE_SIDE_STYLE ('',( #124 ) ) ;
#126 = SURFACE_STYLE_USAGE ( .BOTH. , #125 ) ;
#127 = PRESENTATION_STYLE_ASSIGNMENT (( #126 ) ) ;
#128 =( LENGTH_UNIT ( ) NAMED_UNIT ( * ) SI_UNIT ( $, .METRE. ) );
#129 =( CONVERSION_BASED_UNIT ( 'INCH', #246 ) LENGTH_UNIT ( ) NAMED_UNIT ( #221 ) );
#130 =( NAMED_UNIT ( * ) PLANE_ANGLE_UNIT ( ) SI_UNIT ( $, .RADIAN. ) );
#131 =( NAMED_UNIT ( * ) SI_UNIT ( $, .STERADIAN. ) SOLID_ANGLE_UNIT ( ) );
#132 =( LENGTH_UNIT ( ) NAMED_UNIT ( * ) SI_UNIT ( $, .METRE. ) );
#133 =( CONVERSION_BASED_UNIT ( 'INCH', #177 ) LENGTH_UNIT ( ) NAMED_UNIT ( #220 ) );
#134 =( NAMED_UNIT ( * ) PLANE_ANGLE_UNIT ( ) SI_UNIT ( $, .RADIAN. ) );
#135 =( NAMED_UNIT ( * ) SI_UNIT ( $, .STERADIAN. ) SOLID_ANGLE_UNIT ( ) );
#136 = APPLICATION_PROTOCOL_DEFINITION ( 'draft international standard', 'automotive_design', 1998, #153 ) ;
#137 = FILL_AREA_STYLE_COLOUR ( '', #209 ) ;
#138 = FILL_AREA_STYLE ('',( #137 ) ) ;
#139 = SURFACE_STYLE_FILL_AREA ( #138 ) ;
#140 = SURFACE_SIDE_STYLE ('',( #139 ) ) ;
#141 = SURFACE_STYLE_USAGE ( .BOTH. , #140 ) ;
#142 = PRESENTATION_STYLE_ASSIGNMENT (( #141 ) ) ;
#143 =( LENGTH_UNIT ( ) NAMED_UNIT ( * ) SI_UNIT ( $, .METRE. ) );
#144 =( CONVERSION_BASED_UNIT ( 'INCH', #227 ) LENGTH_UNIT ( ) NAMED_UNIT ( #222 ) );
#145 =( NAMED_UNIT ( * ) PLANE_ANGLE_UNIT ( ) SI_UNIT ( $, .RADIAN. ) );
#146 =( NAMED_UNIT ( * ) SI_UNIT ( $, .STERADIAN. ) SOLID_ANGLE_UNIT ( ) );
#147 = CARTESIAN_POINT ( 'NONE',  ( 0.0000000000000000000, 0.0000000000000000000, 0.0000000000000000000 ) ) ;
#148 = DIRECTION ( 'NONE',  ( 0.0000000000000000000, 0.0000000000000000000, 1.000000000000000000 ) ) ;
#149 = DIRECTION ( 'NONE',  ( 1.000000000000000000, 0.0000000000000000000, 0.0000000000000000000 ) ) ;
#150 = SHAPE_DEFINITION_REPRESENTATION ( #211, #218 ) ;
#151 = PRODUCT_CONTEXT ( 'NONE', #153, 'mechanical' ) ;
#152 =( GEOMETRIC_REPRESENTATION_CONTEXT ( 3 ) GLOBAL_UNCERTAINTY_ASSIGNED_CONTEXT ( ( #214 ) ) GLOBAL_UNIT_ASSIGNED_CONTEXT ( ( #144, #145, #146 ) ) REPRESENTATION_CONTEXT ( 'NONE', 'WORKASPACE' ) );
#153 = APPLICATION_CONTEXT ( 'automotive_design' ) ;
#154 = APPLICATION_CONTEXT ( 'automotive_design' ) ;
#155 =( GEOMETRIC_REPRESENTATION_CONTEXT ( 3 ) GLOBAL_UNCERTAINTY_ASSIGNED_CONTEXT ( ( #216 ) ) GLOBAL_UNIT_ASSIGNED_CONTEXT ( ( #102, #103, #104 ) ) REPRESENTATION_CONTEXT ( 'NONE', 'WORKASPACE' ) );
#156 =( GEOMETRIC_REPRESENTATION_CONTEXT ( 3 ) GLOBAL_UNCERTAINTY_ASSIGNED_CONTEXT ( ( #215 ) ) GLOBAL_UNIT_ASSIGNED_CONTEXT ( ( #129, #130, #131 ) ) REPRESENTATION_CONTEXT ( 'NONE', 'WORKASPACE' ) );
#157 =( GEOMETRIC_REPRESENTATION_CONTEXT ( 3 ) GLOBAL_UNCERTAINTY_ASSIGNED_CONTEXT ( ( #217 ) ) GLOBAL_UNIT_ASSIGNED_CONTEXT ( ( #133, #134, #135 ) ) REPRESENTATION_CONTEXT ( 'NONE', 'WORKASPACE' ) );
#158 = VERTEX_POINT ( 'NONE', #59 ) ;
#159 = VERTEX_POINT ( 'NONE', #60 ) ;
#160 = VERTEX_POINT ( 'NONE', #61 ) ;
#161 = VERTEX_POINT ( 'NONE', #62 ) ;
#162 = VERTEX_POINT ( 'NONE', #63 ) ;
#163 = VERTEX_POINT ( 'NONE', #64 ) ;
#164 = VERTEX_POINT ( 'NONE', #65 ) ;
#165 = VERTEX_POINT ( 'NONE', #66 ) ;
#166 = ORIENTED_EDGE ( 'NONE', *, *, #190, .T. ) ;
#167 = ORIENTED_EDGE ( 'NONE', *, *, #192, .T. ) ;
#168 = ORIENTED_EDGE ( 'NONE', *, *, #5, .T. ) ;
#169 = EDGE_LOOP ( 'NONE', ( #167, #168 ) ) ;
#170 = ORIENTED_EDGE ( 'NONE', *, *, #5, .F. ) ;
#171 = ORIENTED_EDGE ( 'NONE', *, *, #6, .T. ) ;
#172 = ORIENTED_EDGE ( 'NONE', *, *, #1, .T. ) ;
#173 = ORIENTED_EDGE ( 'NONE', *, *, #2, .F. ) ;
#174 = ORIENTED_EDGE ( 'NONE', *, *, #187, .T. ) ;
#175 = PRESENTATION_LAYER_ASSIGNMENT (  '', '', ( #176 ) ) ;
#176 = STYLED_ITEM ( 'NONE', ( #142 ), #218 ) ;
#177 = LENGTH_MEASURE_WITH_UNIT ( LENGTH_MEASURE( 0.02539999999999999900 ), #132 );
#178 = AXIS2_PLACEMENT_3D ( 'NONE', #73, #77, #78 ) ;
#179 = AXIS2_PLACEMENT_3D ( 'NONE', #70, #71, #72 ) ;
#180 = AXIS2_PLACEMENT_3D ( 'NONE', #67, #68, #69 ) ;
#181 = AXIS2_PLACEMENT_3D ( 'NONE', #147, #148, #149 ) ;
#182 = AXIS2_PLACEMENT_3D ( 'NONE', #56, #57, #58 ) ;
#183 = VECTOR ( 'NONE', #53, 39.37007874015748100 ) ;
#184 = AXIS2_PLACEMENT_3D ( 'NONE', #47, #54, #55 ) ;
#185 = VECTOR ( 'NONE', #76, 39.37007874015748100 ) ;
#186 = EDGE_CURVE ( 'NONE', #159, #163, #204, .T. ) ;
#187 = EDGE_CURVE ( 'NONE', #164, #165, #205, .T. ) ;
#188 = EDGE_CURVE ( 'NONE', #163, #165, #74, .T. ) ;
#189 = EDGE_CURVE ( 'NONE', #163, #159, #201, .T. ) ;
#190 = EDGE_CURVE ( 'NONE', #162, #160, #202, .T. ) ;
#191 = EDGE_CURVE ( 'NONE', #165, #164, #203, .T. ) ;
#192 = EDGE_CURVE ( 'NONE', #161, #158, #206, .T. ) ;
#193 = ADVANCED_FACE ( 'NONE', ( #17 ), #14, .T. ) ;
#194 = ADVANCED_FACE ( 'NONE', ( #12 ), #91, .F. ) ;
#195 = ADVANCED_FACE ( 'NONE', ( #9 ), #105, .T. ) ;
#196 = ADVANCED_FACE ( 'NONE', ( #10 ), #230, .T. ) ;
#197 = ADVANCED_FACE ( 'NONE', ( #8, #233 ), #112, .T. ) ;
#198 = ADVANCED_FACE ( 'NONE', ( #236 ), #232, .T. ) ;
#199 = ADVANCED_FACE ( 'NONE', ( #234 ), #245, .T. ) ;
#200 = CIRCLE ( 'NONE', #182, 0.05424508571490565400 ) ;
#201 = CIRCLE ( 'NONE', #178, 0.1250000000000000000 ) ;
#202 = CIRCLE ( 'NONE', #242, 0.05424508571490565400 ) ;
#203 = CIRCLE ( 'NONE', #239, 0.1250000000000000000 ) ;
#204 = CIRCLE ( 'NONE', #180, 0.1250000000000000000 ) ;
#205 = CIRCLE ( 'NONE', #179, 0.1250000000000000000 ) ;
#206 = CIRCLE ( 'NONE', #240, 0.05424508571490565400 ) ;
#207 = COLOUR_RGB ( '',1.000000000000000000, 0.1686274509803921700, 0.1686274509803921700 ) ;
#208 = COLOUR_RGB ( '',0.5686274509803921400, 0.5686274509803921400, 0.5882352941176470800 ) ;
#209 = COLOUR_RGB ( '',0.5686274509803921400, 0.5686274509803921400, 0.5882352941176470800 ) ;
#210 = PRODUCT_DEFINITION ( 'UNKNOWN', '', #226, #212 ) ;
#211 = PRODUCT_DEFINITION_SHAPE ( 'NONE', 'NONE',  #210 ) ;
#212 = PRODUCT_DEFINITION_CONTEXT ( 'detailed design', #154, 'design' ) ;
#213 = MANIFOLD_SOLID_BREP ( 'Boss-Extrude2', #241 ) ;
#214 = UNCERTAINTY_MEASURE_WITH_UNIT (LENGTH_MEASURE( 1.000000000000000100E-005 ), #144, 'distance_accuracy_value', 'NONE');
#215 = UNCERTAINTY_MEASURE_WITH_UNIT (LENGTH_MEASURE( 1.000000000000000100E-005 ), #129, 'distance_accuracy_value', 'NONE');
#216 = UNCERTAINTY_MEASURE_WITH_UNIT (LENGTH_MEASURE( 1.000000000000000100E-005 ), #102, 'distance_accuracy_value', 'NONE');
#217 = UNCERTAINTY_MEASURE_WITH_UNIT (LENGTH_MEASURE( 1.000000000000000100E-005 ), #133, 'distance_accuracy_value', 'NONE');
#218 = ADVANCED_BREP_SHAPE_REPRESENTATION ( 'R250B-M', ( #213, #181 ), #157 ) ;
#219 = DIMENSIONAL_EXPONENTS ( 1.000000000000000000, 0.0000000000000000000, 0.0000000000000000000, 0.0000000000000000000, 0.0000000000000000000, 0.0000000000000000000, 0.0000000000000000000 ) ;
#220 = DIMENSIONAL_EXPONENTS ( 1.000000000000000000, 0.0000000000000000000, 0.0000000000000000000, 0.0000000000000000000, 0.0000000000000000000, 0.0000000000000000000, 0.0000000000000000000 ) ;
#221 = DIMENSIONAL_EXPONENTS ( 1.000000000000000000, 0.0000000000000000000, 0.0000000000000000000, 0.0000000000000000000, 0.0000000000000000000, 0.0000000000000000000, 0.0000000000000000000 ) ;
#222 = DIMENSIONAL_EXPONENTS ( 1.000000000000000000, 0.0000000000000000000, 0.0000000000000000000, 0.0000000000000000000, 0.0000000000000000000, 0.0000000000000000000, 0.0000000000000000000 ) ;
#223 = PRODUCT ( 'R250B-M', 'R250B-M', '', ( #151 ) ) ;
#224 = APPLICATION_PROTOCOL_DEFINITION ( 'draft international standard', 'automotive_design', 1998, #154 ) ;
#225 = PRODUCT_RELATED_PRODUCT_CATEGORY ( 'part', '', ( #223 ) ) ;
#226 = PRODUCT_DEFINITION_FORMATION_WITH_SPECIFIED_SOURCE ( 'ANY', '', #223, .NOT_KNOWN. ) ;
#227 = LENGTH_MEASURE_WITH_UNIT ( LENGTH_MEASURE( 0.02539999999999999900 ), #143 );
#228 = PRESENTATION_LAYER_ASSIGNMENT (  '', '', ( #231 ) ) ;
#229 = AXIS2_PLACEMENT_3D ( 'NONE', #116, #117, #118 ) ;
#230 = CYLINDRICAL_SURFACE ( 'NONE', #235, 0.05424508571490565400 ) ;
#231 = STYLED_ITEM ( 'NONE', ( #127 ), #213 ) ;
#232 = CYLINDRICAL_SURFACE ( 'NONE', #229, 0.1250000000000000000 ) ;
#233 = FACE_BOUND ( 'NONE', #43, .T. ) ;
#234 = FACE_OUTER_BOUND ( 'NONE', #37, .T. ) ;
#235 = AXIS2_PLACEMENT_3D ( 'NONE', #109, #110, #111 ) ;
#236 = FACE_OUTER_BOUND ( 'NONE', #38, .T. ) ;
#237 = AXIS2_PLACEMENT_3D ( 'NONE', #113, #114, #115 ) ;
#238 = VECTOR ( 'NONE', #46, 39.37007874015748100 ) ;
#239 = AXIS2_PLACEMENT_3D ( 'NONE', #82, #83, #84 ) ;
#240 = AXIS2_PLACEMENT_3D ( 'NONE', #85, #86, #87 ) ;
#241 = CLOSED_SHELL ( 'NONE', ( #199, #198, #197, #193, #194, #196, #195 ) ) ;
#242 = AXIS2_PLACEMENT_3D ( 'NONE', #79, #80, #81 ) ;
#243 = VECTOR ( 'NONE', #50, 39.37007874015748100 ) ;
#244 = AXIS2_PLACEMENT_3D ( 'NONE', #119, #120, #121 ) ;
#245 = CYLINDRICAL_SURFACE ( 'NONE', #244, 0.05424508571490565400 ) ;
#246 = LENGTH_MEASURE_WITH_UNIT ( LENGTH_MEASURE( 0.02539999999999999900 ), #128 );
#247 = MECHANICAL_DESIGN_GEOMETRIC_PRESENTATION_REPRESENTATION (  '', ( #231 ), #156 ) ;
ENDSEC;
END-ISO-10303-21;
