ISO-10303-21;
HEADER;
FILE_DESCRIPTION (( 'STEP AP214' ),
    '1' );
FILE_NAME ('R250B.step',
    '2012-04-20T21:05:17',
    ( '' ),
    ( '' ),
    'SwSTEP 2.0',
    'SolidWorks 2012',
    '' );
FILE_SCHEMA (( 'AUTOMOTIVE_DESIGN' ));
ENDSEC;

DATA;
#1 =( GEOMETRIC_REPRESENTATION_CONTEXT ( 3 ) GLOBAL_UNCERTAINTY_ASSIGNED_CONTEXT ( ( #49 ) ) GLOBAL_UNIT_ASSIGNED_CONTEXT ( ( #92, #93, #94 ) ) REPRESENTATION_CONTEXT ( 'NONE', 'WORKASPACE' ) );
#2 =( GEOMETRIC_REPRESENTATION_CONTEXT ( 3 ) GLOBAL_UNCERTAINTY_ASSIGNED_CONTEXT ( ( #47 ) ) GLOBAL_UNIT_ASSIGNED_CONTEXT ( ( #121, #122, #123 ) ) REPRESENTATION_CONTEXT ( 'NONE', 'WORKASPACE' ) );
#3 = ORIENTED_EDGE ( 'NONE', *, *, #39, .F. ) ;
#4 = ORIENTED_EDGE ( 'NONE', *, *, #38, .T. ) ;
#5 = ORIENTED_EDGE ( 'NONE', *, *, #42, .T. ) ;
#6 = ORIENTED_EDGE ( 'NONE', *, *, #42, .F. ) ;
#7 = VECTOR ( 'NONE', #110, 39.37007874015748100 ) ;
#8 = FACE_OUTER_BOUND ( 'NONE', #73, .T. ) ;
#9 = LENGTH_MEASURE_WITH_UNIT ( LENGTH_MEASURE( 0.02539999999999999900 ), #120 );
#10 = AXIS2_PLACEMENT_3D ( 'NONE', #104, #105, #106 ) ;
#11 = PRESENTATION_LAYER_ASSIGNMENT (  '', '', ( #145 ) ) ;
#12 = VECTOR ( 'NONE', #101, 39.37007874015748100 ) ;
#13 = LENGTH_MEASURE_WITH_UNIT ( LENGTH_MEASURE( 0.02539999999999999900 ), #91 );
#14 = CYLINDRICAL_SURFACE ( 'NONE', #17, 0.1250000000000000000 ) ;
#15 = AXIS2_PLACEMENT_3D ( 'NONE', #95, #96, #97 ) ;
#16 = AXIS2_PLACEMENT_3D ( 'NONE', #98, #102, #103 ) ;
#17 = AXIS2_PLACEMENT_3D ( 'NONE', #82, #83, #84 ) ;
#18 = MECHANICAL_DESIGN_GEOMETRIC_PRESENTATION_REPRESENTATION (  '', ( #145 ), #1 ) ;
#19 = AXIS2_PLACEMENT_3D ( 'NONE', #107, #111, #112 ) ;
#20 = ORIENTED_EDGE ( 'NONE', *, *, #41, .T. ) ;
#21 = ADVANCED_FACE ( 'NONE', ( #146 ), #74, .F. ) ;
#22 = ADVANCED_FACE ( 'NONE', ( #143 ), #78, .T. ) ;
#23 = ADVANCED_FACE ( 'NONE', ( #144 ), #14, .T. ) ;
#24 = CIRCLE ( 'NONE', #10, 0.1250000000000000000 ) ;
#25 = CIRCLE ( 'NONE', #16, 0.1250000000000000000 ) ;
#26 = COLOUR_RGB ( '',0.5686274509803921400, 0.5686274509803921400, 0.5882352941176470800 ) ;
#27 = CIRCLE ( 'NONE', #15, 0.1250000000000000000 ) ;
#28 = CIRCLE ( 'NONE', #19, 0.1250000000000000000 ) ;
#29 = PRODUCT_RELATED_PRODUCT_CATEGORY ( 'part', '', ( #55 ) ) ;
#30 = COLOUR_RGB ( '',0.5686274509803921400, 0.5686274509803921400, 0.5882352941176470800 ) ;
#31 = PRODUCT_DEFINITION ( 'UNKNOWN', '', #148, #36 ) ;
#32 =( GEOMETRIC_REPRESENTATION_CONTEXT ( 3 ) GLOBAL_UNCERTAINTY_ASSIGNED_CONTEXT ( ( #48 ) ) GLOBAL_UNIT_ASSIGNED_CONTEXT ( ( #131, #132, #133 ) ) REPRESENTATION_CONTEXT ( 'NONE', 'WORKASPACE' ) );
#33 = APPLICATION_CONTEXT ( 'automotive_design' ) ;
#34 = APPLICATION_CONTEXT ( 'automotive_design' ) ;
#35 = MANIFOLD_SOLID_BREP ( 'Boss-Extrude1', #142 ) ;
#36 = PRODUCT_DEFINITION_CONTEXT ( 'detailed design', #34, 'design' ) ;
#37 = PRODUCT_DEFINITION_SHAPE ( 'NONE', 'NONE',  #31 ) ;
#38 = EDGE_CURVE ( 'NONE', #67, #68, #27, .T. ) ;
#39 = EDGE_CURVE ( 'NONE', #66, #68, #99, .T. ) ;
#40 = EDGE_CURVE ( 'NONE', #66, #65, #25, .T. ) ;
#41 = EDGE_CURVE ( 'NONE', #68, #67, #24, .T. ) ;
#42 = EDGE_CURVE ( 'NONE', #65, #67, #108, .T. ) ;
#43 = EDGE_CURVE ( 'NONE', #65, #66, #28, .T. ) ;
#44 = ADVANCED_FACE ( 'NONE', ( #8 ), #139, .T. ) ;
#45 = ORIENTED_EDGE ( 'NONE', *, *, #39, .T. ) ;
#46 = ORIENTED_EDGE ( 'NONE', *, *, #40, .F. ) ;
#47 = UNCERTAINTY_MEASURE_WITH_UNIT (LENGTH_MEASURE( 1.000000000000000100E-005 ), #121, 'distance_accuracy_value', 'NONE');
#48 = UNCERTAINTY_MEASURE_WITH_UNIT (LENGTH_MEASURE( 1.000000000000000100E-005 ), #131, 'distance_accuracy_value', 'NONE');
#49 = UNCERTAINTY_MEASURE_WITH_UNIT (LENGTH_MEASURE( 1.000000000000000100E-005 ), #92, 'distance_accuracy_value', 'NONE');
#50 = ADVANCED_BREP_SHAPE_REPRESENTATION ( 'R250B', ( #35, #149 ), #2 ) ;
#51 = ORIENTED_EDGE ( 'NONE', *, *, #40, .T. ) ;
#52 = DIMENSIONAL_EXPONENTS ( 1.000000000000000000, 0.0000000000000000000, 0.0000000000000000000, 0.0000000000000000000, 0.0000000000000000000, 0.0000000000000000000, 0.0000000000000000000 ) ;
#53 = DIMENSIONAL_EXPONENTS ( 1.000000000000000000, 0.0000000000000000000, 0.0000000000000000000, 0.0000000000000000000, 0.0000000000000000000, 0.0000000000000000000, 0.0000000000000000000 ) ;
#54 = DIMENSIONAL_EXPONENTS ( 1.000000000000000000, 0.0000000000000000000, 0.0000000000000000000, 0.0000000000000000000, 0.0000000000000000000, 0.0000000000000000000, 0.0000000000000000000 ) ;
#55 = PRODUCT ( 'R250B', 'R250B', '', ( #61 ) ) ;
#56 = ORIENTED_EDGE ( 'NONE', *, *, #43, .T. ) ;
#57 = DIRECTION ( 'NONE',  ( 0.0000000000000000000, 0.0000000000000000000, 1.000000000000000000 ) ) ;
#58 = DIRECTION ( 'NONE',  ( 1.000000000000000000, 0.0000000000000000000, 0.0000000000000000000 ) ) ;
#59 = SHAPE_DEFINITION_REPRESENTATION ( #37, #50 ) ;
#60 = APPLICATION_PROTOCOL_DEFINITION ( 'draft international standard', 'automotive_design', 1998, #33 ) ;
#61 = PRODUCT_CONTEXT ( 'NONE', #33, 'mechanical' ) ;
#62 = APPLICATION_PROTOCOL_DEFINITION ( 'draft international standard', 'automotive_design', 1998, #34 ) ;
#63 = ORIENTED_EDGE ( 'NONE', *, *, #41, .F. ) ;
#64 = ORIENTED_EDGE ( 'NONE', *, *, #38, .F. ) ;
#65 = VERTEX_POINT ( 'NONE', #116 ) ;
#66 = VERTEX_POINT ( 'NONE', #117 ) ;
#67 = VERTEX_POINT ( 'NONE', #118 ) ;
#68 = VERTEX_POINT ( 'NONE', #119 ) ;
#69 = ORIENTED_EDGE ( 'NONE', *, *, #43, .F. ) ;
#70 = EDGE_LOOP ( 'NONE', ( #63, #64 ) ) ;
#71 = EDGE_LOOP ( 'NONE', ( #6, #46, #45, #20 ) ) ;
#72 = EDGE_LOOP ( 'NONE', ( #51, #56 ) ) ;
#73 = EDGE_LOOP ( 'NONE', ( #69, #5, #4, #3 ) ) ;
#74 = PLANE ( 'NONE',  #147 ) ;
#75 = CARTESIAN_POINT ( 'NONE',  ( 0.0000000000000000000, 0.0000000000000000000, 0.0000000000000000000 ) ) ;
#76 = DIRECTION ( 'NONE',  ( 0.0000000000000000000, 1.000000000000000000, 0.0000000000000000000 ) ) ;
#77 = DIRECTION ( 'NONE',  ( 0.0000000000000000000, -0.0000000000000000000, 1.000000000000000000 ) ) ;
#78 = PLANE ( 'NONE',  #141 ) ;
#79 = CARTESIAN_POINT ( 'NONE',  ( 0.0000000000000000000, 0.2500000000000000000, 0.0000000000000000000 ) ) ;
#80 = DIRECTION ( 'NONE',  ( 0.0000000000000000000, 1.000000000000000000, 0.0000000000000000000 ) ) ;
#81 = DIRECTION ( 'NONE',  ( 0.0000000000000000000, -0.0000000000000000000, 1.000000000000000000 ) ) ;
#82 = CARTESIAN_POINT ( 'NONE',  ( 0.0000000000000000000, 0.2500000000000000000, 0.0000000000000000000 ) ) ;
#83 = DIRECTION ( 'NONE',  ( -0.0000000000000000000, -1.000000000000000000, -0.0000000000000000000 ) ) ;
#84 = DIRECTION ( 'NONE',  ( 0.0000000000000000000, 0.0000000000000000000, -1.000000000000000000 ) ) ;
#85 = FILL_AREA_STYLE_COLOUR ( '', #26 ) ;
#86 = FILL_AREA_STYLE ('',( #85 ) ) ;
#87 = SURFACE_STYLE_FILL_AREA ( #86 ) ;
#88 = SURFACE_SIDE_STYLE ('',( #87 ) ) ;
#89 = SURFACE_STYLE_USAGE ( .BOTH. , #88 ) ;
#90 = PRESENTATION_STYLE_ASSIGNMENT (( #89 ) ) ;
#91 =( LENGTH_UNIT ( ) NAMED_UNIT ( * ) SI_UNIT ( $, .METRE. ) );
#92 =( CONVERSION_BASED_UNIT ( 'INCH', #13 ) LENGTH_UNIT ( ) NAMED_UNIT ( #52 ) );
#93 =( NAMED_UNIT ( * ) PLANE_ANGLE_UNIT ( ) SI_UNIT ( $, .RADIAN. ) );
#94 =( NAMED_UNIT ( * ) SI_UNIT ( $, .STERADIAN. ) SOLID_ANGLE_UNIT ( ) );
#95 = CARTESIAN_POINT ( 'NONE',  ( 0.0000000000000000000, 0.0000000000000000000, 0.0000000000000000000 ) ) ;
#96 = DIRECTION ( 'NONE',  ( 0.0000000000000000000, 1.000000000000000000, 0.0000000000000000000 ) ) ;
#97 = DIRECTION ( 'NONE',  ( 0.0000000000000000000, 0.0000000000000000000, 1.000000000000000000 ) ) ;
#98 = CARTESIAN_POINT ( 'NONE',  ( 0.0000000000000000000, 0.2500000000000000000, 0.0000000000000000000 ) ) ;
#99 = LINE ( 'NONE', #100, #12 ) ;
#100 = CARTESIAN_POINT ( 'NONE',  ( 0.0000000000000000000, 0.2500000000000000000, -0.1250000000000000000 ) ) ;
#101 = DIRECTION ( 'NONE',  ( -0.0000000000000000000, -1.000000000000000000, -0.0000000000000000000 ) ) ;
#102 = DIRECTION ( 'NONE',  ( 0.0000000000000000000, 1.000000000000000000, 0.0000000000000000000 ) ) ;
#103 = DIRECTION ( 'NONE',  ( 0.0000000000000000000, 0.0000000000000000000, 1.000000000000000000 ) ) ;
#104 = CARTESIAN_POINT ( 'NONE',  ( 0.0000000000000000000, 0.0000000000000000000, 0.0000000000000000000 ) ) ;
#105 = DIRECTION ( 'NONE',  ( 0.0000000000000000000, 1.000000000000000000, 0.0000000000000000000 ) ) ;
#106 = DIRECTION ( 'NONE',  ( 0.0000000000000000000, 0.0000000000000000000, 1.000000000000000000 ) ) ;
#107 = CARTESIAN_POINT ( 'NONE',  ( 0.0000000000000000000, 0.2500000000000000000, 0.0000000000000000000 ) ) ;
#108 = LINE ( 'NONE', #109, #7 ) ;
#109 = CARTESIAN_POINT ( 'NONE',  ( 1.530808498934191500E-017, 0.2500000000000000000, 0.1250000000000000000 ) ) ;
#110 = DIRECTION ( 'NONE',  ( -0.0000000000000000000, -1.000000000000000000, -0.0000000000000000000 ) ) ;
#111 = DIRECTION ( 'NONE',  ( 0.0000000000000000000, 1.000000000000000000, 0.0000000000000000000 ) ) ;
#112 = DIRECTION ( 'NONE',  ( 0.0000000000000000000, 0.0000000000000000000, 1.000000000000000000 ) ) ;
#113 = CARTESIAN_POINT ( 'NONE',  ( 0.0000000000000000000, 0.2500000000000000000, 0.0000000000000000000 ) ) ;
#114 = DIRECTION ( 'NONE',  ( -0.0000000000000000000, -1.000000000000000000, -0.0000000000000000000 ) ) ;
#115 = DIRECTION ( 'NONE',  ( 0.0000000000000000000, 0.0000000000000000000, -1.000000000000000000 ) ) ;
#116 = CARTESIAN_POINT ( 'NONE',  ( 1.530808498934191500E-017, 0.2500000000000000000, 0.1250000000000000000 ) ) ;
#117 = CARTESIAN_POINT ( 'NONE',  ( 0.0000000000000000000, 0.2500000000000000000, -0.1250000000000000000 ) ) ;
#118 = CARTESIAN_POINT ( 'NONE',  ( 1.530808498934191500E-017, 0.0000000000000000000, 0.1250000000000000000 ) ) ;
#119 = CARTESIAN_POINT ( 'NONE',  ( 0.0000000000000000000, 0.0000000000000000000, -0.1250000000000000000 ) ) ;
#120 =( LENGTH_UNIT ( ) NAMED_UNIT ( * ) SI_UNIT ( $, .METRE. ) );
#121 =( CONVERSION_BASED_UNIT ( 'INCH', #9 ) LENGTH_UNIT ( ) NAMED_UNIT ( #53 ) );
#122 =( NAMED_UNIT ( * ) PLANE_ANGLE_UNIT ( ) SI_UNIT ( $, .RADIAN. ) );
#123 =( NAMED_UNIT ( * ) SI_UNIT ( $, .STERADIAN. ) SOLID_ANGLE_UNIT ( ) );
#124 = FILL_AREA_STYLE_COLOUR ( '', #30 ) ;
#125 = FILL_AREA_STYLE ('',( #124 ) ) ;
#126 = SURFACE_STYLE_FILL_AREA ( #125 ) ;
#127 = SURFACE_SIDE_STYLE ('',( #126 ) ) ;
#128 = SURFACE_STYLE_USAGE ( .BOTH. , #127 ) ;
#129 = PRESENTATION_STYLE_ASSIGNMENT (( #128 ) ) ;
#130 =( LENGTH_UNIT ( ) NAMED_UNIT ( * ) SI_UNIT ( $, .METRE. ) );
#131 =( CONVERSION_BASED_UNIT ( 'INCH', #135 ) LENGTH_UNIT ( ) NAMED_UNIT ( #54 ) );
#132 =( NAMED_UNIT ( * ) PLANE_ANGLE_UNIT ( ) SI_UNIT ( $, .RADIAN. ) );
#133 =( NAMED_UNIT ( * ) SI_UNIT ( $, .STERADIAN. ) SOLID_ANGLE_UNIT ( ) );
#134 = CARTESIAN_POINT ( 'NONE',  ( 0.0000000000000000000, 0.0000000000000000000, 0.0000000000000000000 ) ) ;
#135 = LENGTH_MEASURE_WITH_UNIT ( LENGTH_MEASURE( 0.02539999999999999900 ), #130 );
#136 = MECHANICAL_DESIGN_GEOMETRIC_PRESENTATION_REPRESENTATION (  '', ( #138 ), #32 ) ;
#137 = PRESENTATION_LAYER_ASSIGNMENT (  '', '', ( #138 ) ) ;
#138 = STYLED_ITEM ( 'NONE', ( #129 ), #50 ) ;
#139 = CYLINDRICAL_SURFACE ( 'NONE', #140, 0.1250000000000000000 ) ;
#140 = AXIS2_PLACEMENT_3D ( 'NONE', #113, #114, #115 ) ;
#141 = AXIS2_PLACEMENT_3D ( 'NONE', #79, #80, #81 ) ;
#142 = CLOSED_SHELL ( 'NONE', ( #44, #23, #22, #21 ) ) ;
#143 = FACE_OUTER_BOUND ( 'NONE', #72, .T. ) ;
#144 = FACE_OUTER_BOUND ( 'NONE', #71, .T. ) ;
#145 = STYLED_ITEM ( 'NONE', ( #90 ), #35 ) ;
#146 = FACE_OUTER_BOUND ( 'NONE', #70, .T. ) ;
#147 = AXIS2_PLACEMENT_3D ( 'NONE', #75, #76, #77 ) ;
#148 = PRODUCT_DEFINITION_FORMATION_WITH_SPECIFIED_SOURCE ( 'ANY', '', #55, .NOT_KNOWN. ) ;
#149 = AXIS2_PLACEMENT_3D ( 'NONE', #134, #57, #58 ) ;
ENDSEC;
END-ISO-10303-21;
