ISO-10303-21;
HEADER;
FILE_DESCRIPTION (( 'STEP AP214' ),
    '1' );
FILE_NAME ('R500CN45.step',
    '2012-04-20T21:06:05',
    ( '' ),
    ( '' ),
    'SwSTEP 2.0',
    'SolidWorks 2012',
    '' );
FILE_SCHEMA (( 'AUTOMOTIVE_DESIGN' ));
ENDSEC;

DATA;
#1 = LENGTH_MEASURE_WITH_UNIT ( LENGTH_MEASURE( 0.02539999999999999900 ), #129 );
#2 = DIRECTION ( 'NONE',  ( 0.0000000000000000000, 0.0000000000000000000, 1.000000000000000000 ) ) ;
#3 =( GEOMETRIC_REPRESENTATION_CONTEXT ( 3 ) GLOBAL_UNCERTAINTY_ASSIGNED_CONTEXT ( ( #26 ) ) GLOBAL_UNIT_ASSIGNED_CONTEXT ( ( #130, #131, #132 ) ) REPRESENTATION_CONTEXT ( 'NONE', 'WORKASPACE' ) );
#4 =( GEOMETRIC_REPRESENTATION_CONTEXT ( 3 ) GLOBAL_UNCERTAINTY_ASSIGNED_CONTEXT ( ( #29 ) ) GLOBAL_UNIT_ASSIGNED_CONTEXT ( ( #141, #142, #143 ) ) REPRESENTATION_CONTEXT ( 'NONE', 'WORKASPACE' ) );
#5 =( GEOMETRIC_REPRESENTATION_CONTEXT ( 3 ) GLOBAL_UNCERTAINTY_ASSIGNED_CONTEXT ( ( #27 ) ) GLOBAL_UNIT_ASSIGNED_CONTEXT ( ( #126, #127, #128 ) ) REPRESENTATION_CONTEXT ( 'NONE', 'WORKASPACE' ) );
#6 = LENGTH_MEASURE_WITH_UNIT ( LENGTH_MEASURE( 0.02539999999999999900 ), #125 );
#7 = MECHANICAL_DESIGN_GEOMETRIC_PRESENTATION_REPRESENTATION (  '', ( #62 ), #5 ) ;
#8 = PRESENTATION_LAYER_ASSIGNMENT (  '', '', ( #62 ) ) ;
#9 = VERTEX_POINT ( 'NONE', #13 ) ;
#10 = ORIENTED_EDGE ( 'NONE', *, *, #93, .T. ) ;
#11 = VERTEX_POINT ( 'NONE', #23 ) ;
#12 = ORIENTED_EDGE ( 'NONE', *, *, #95, .F. ) ;
#13 = CARTESIAN_POINT ( 'NONE',  ( 2.296212748401287700E-017, 0.5000000000000000000, 0.1875000000000000300 ) ) ;
#14 = VERTEX_POINT ( 'NONE', #21 ) ;
#15 = PLANE ( 'NONE',  #75 ) ;
#16 = CARTESIAN_POINT ( 'NONE',  ( 0.0000000000000000000, 0.5000000000000000000, -0.1875000000000000300 ) ) ;
#17 = DIRECTION ( 'NONE',  ( 0.0000000000000000000, -0.0000000000000000000, 1.000000000000000000 ) ) ;
#18 = CARTESIAN_POINT ( 'NONE',  ( 0.0000000000000000000, 0.5000000000000000000, 0.0000000000000000000 ) ) ;
#19 = DIRECTION ( 'NONE',  ( 0.0000000000000000000, 1.000000000000000000, 0.0000000000000000000 ) ) ;
#20 = ORIENTED_EDGE ( 'NONE', *, *, #97, .T. ) ;
#21 = CARTESIAN_POINT ( 'NONE',  ( 0.0000000000000000000, 0.0000000000000000000, -0.1875000000000000300 ) ) ;
#22 = ORIENTED_EDGE ( 'NONE', *, *, #94, .F. ) ;
#23 = CARTESIAN_POINT ( 'NONE',  ( 2.296212748401287700E-017, 0.0000000000000000000, 0.1875000000000000300 ) ) ;
#24 = VERTEX_POINT ( 'NONE', #16 ) ;
#25 = ORIENTED_EDGE ( 'NONE', *, *, #92, .F. ) ;
#26 = UNCERTAINTY_MEASURE_WITH_UNIT (LENGTH_MEASURE( 1.000000000000000100E-005 ), #130, 'distance_accuracy_value', 'NONE');
#27 = UNCERTAINTY_MEASURE_WITH_UNIT (LENGTH_MEASURE( 1.000000000000000100E-005 ), #126, 'distance_accuracy_value', 'NONE');
#28 = ADVANCED_BREP_SHAPE_REPRESENTATION ( 'R500CN45', ( #102, #48 ), #3 ) ;
#29 = UNCERTAINTY_MEASURE_WITH_UNIT (LENGTH_MEASURE( 1.000000000000000100E-005 ), #141, 'distance_accuracy_value', 'NONE');
#30 = CARTESIAN_POINT ( 'NONE',  ( 2.296212748401287700E-017, 0.5000000000000000000, 0.1875000000000000300 ) ) ;
#31 = DIRECTION ( 'NONE',  ( 0.0000000000000000000, 0.0000000000000000000, 1.000000000000000000 ) ) ;
#32 = DIRECTION ( 'NONE',  ( -0.0000000000000000000, -1.000000000000000000, -0.0000000000000000000 ) ) ;
#33 = DIRECTION ( 'NONE',  ( 0.0000000000000000000, 1.000000000000000000, 0.0000000000000000000 ) ) ;
#34 = CARTESIAN_POINT ( 'NONE',  ( 0.0000000000000000000, 0.5000000000000000000, -0.1875000000000000300 ) ) ;
#35 = LINE ( 'NONE', #34, #76 ) ;
#36 = CARTESIAN_POINT ( 'NONE',  ( 0.0000000000000000000, 0.0000000000000000000, 0.0000000000000000000 ) ) ;
#37 = LINE ( 'NONE', #30, #78 ) ;
#38 = DIRECTION ( 'NONE',  ( -0.0000000000000000000, -1.000000000000000000, -0.0000000000000000000 ) ) ;
#39 = PRODUCT_DEFINITION_SHAPE ( 'NONE', 'NONE',  #85 ) ;
#40 = PRODUCT_DEFINITION_CONTEXT ( 'detailed design', #69, 'design' ) ;
#41 = DIMENSIONAL_EXPONENTS ( 1.000000000000000000, 0.0000000000000000000, 0.0000000000000000000, 0.0000000000000000000, 0.0000000000000000000, 0.0000000000000000000, 0.0000000000000000000 ) ;
#42 = DIMENSIONAL_EXPONENTS ( 1.000000000000000000, 0.0000000000000000000, 0.0000000000000000000, 0.0000000000000000000, 0.0000000000000000000, 0.0000000000000000000, 0.0000000000000000000 ) ;
#43 = DIMENSIONAL_EXPONENTS ( 1.000000000000000000, 0.0000000000000000000, 0.0000000000000000000, 0.0000000000000000000, 0.0000000000000000000, 0.0000000000000000000, 0.0000000000000000000 ) ;
#44 = PRODUCT ( 'R500CN45', 'R500CN45', '', ( #148 ) ) ;
#45 = PRESENTATION_LAYER_ASSIGNMENT (  '', '', ( #61 ) ) ;
#46 = MECHANICAL_DESIGN_GEOMETRIC_PRESENTATION_REPRESENTATION (  '', ( #61 ), #4 ) ;
#47 = LENGTH_MEASURE_WITH_UNIT ( LENGTH_MEASURE( 0.02539999999999999900 ), #140 );
#48 = AXIS2_PLACEMENT_3D ( 'NONE', #144, #145, #146 ) ;
#49 = PRODUCT_DEFINITION_FORMATION_WITH_SPECIFIED_SOURCE ( 'ANY', '', #44, .NOT_KNOWN. ) ;
#50 = ORIENTED_EDGE ( 'NONE', *, *, #93, .F. ) ;
#51 = ORIENTED_EDGE ( 'NONE', *, *, #96, .F. ) ;
#52 = ORIENTED_EDGE ( 'NONE', *, *, #94, .T. ) ;
#53 = ORIENTED_EDGE ( 'NONE', *, *, #97, .F. ) ;
#54 = ORIENTED_EDGE ( 'NONE', *, *, #92, .T. ) ;
#55 = ORIENTED_EDGE ( 'NONE', *, *, #95, .T. ) ;
#56 = ORIENTED_EDGE ( 'NONE', *, *, #96, .T. ) ;
#57 = EDGE_LOOP ( 'NONE', ( #25, #51, #10, #20 ) ) ;
#58 = EDGE_LOOP ( 'NONE', ( #12, #54, #52, #50 ) ) ;
#59 = EDGE_LOOP ( 'NONE', ( #56, #55 ) ) ;
#60 = EDGE_LOOP ( 'NONE', ( #53, #22 ) ) ;
#61 = STYLED_ITEM ( 'NONE', ( #139 ), #28 ) ;
#62 = STYLED_ITEM ( 'NONE', ( #124 ), #102 ) ;
#63 = CYLINDRICAL_SURFACE ( 'NONE', #65, 0.1875000000000000300 ) ;
#64 = AXIS2_PLACEMENT_3D ( 'NONE', #116, #117, #118 ) ;
#65 = AXIS2_PLACEMENT_3D ( 'NONE', #112, #113, #114 ) ;
#66 = FACE_OUTER_BOUND ( 'NONE', #60, .T. ) ;
#67 = CARTESIAN_POINT ( 'NONE',  ( 0.0000000000000000000, 0.5000000000000000000, 0.0000000000000000000 ) ) ;
#68 = DIRECTION ( 'NONE',  ( 0.0000000000000000000, 1.000000000000000000, 0.0000000000000000000 ) ) ;
#69 = APPLICATION_CONTEXT ( 'automotive_design' ) ;
#70 = APPLICATION_CONTEXT ( 'automotive_design' ) ;
#71 = CLOSED_SHELL ( 'NONE', ( #98, #99, #89, #100 ) ) ;
#72 = AXIS2_PLACEMENT_3D ( 'NONE', #106, #107, #108 ) ;
#73 = FACE_OUTER_BOUND ( 'NONE', #58, .T. ) ;
#74 = FACE_OUTER_BOUND ( 'NONE', #57, .T. ) ;
#75 = AXIS2_PLACEMENT_3D ( 'NONE', #18, #19, #17 ) ;
#76 = VECTOR ( 'NONE', #32, 39.37007874015748100 ) ;
#77 = AXIS2_PLACEMENT_3D ( 'NONE', #103, #104, #105 ) ;
#78 = VECTOR ( 'NONE', #38, 39.37007874015748100 ) ;
#79 = CYLINDRICAL_SURFACE ( 'NONE', #81, 0.1875000000000000300 ) ;
#80 = AXIS2_PLACEMENT_3D ( 'NONE', #67, #68, #2 ) ;
#81 = AXIS2_PLACEMENT_3D ( 'NONE', #109, #110, #111 ) ;
#82 = FACE_OUTER_BOUND ( 'NONE', #59, .T. ) ;
#83 = AXIS2_PLACEMENT_3D ( 'NONE', #36, #33, #31 ) ;
#84 = PRODUCT_RELATED_PRODUCT_CATEGORY ( 'part', '', ( #44 ) ) ;
#85 = PRODUCT_DEFINITION ( 'UNKNOWN', '', #49, #40 ) ;
#86 = COLOUR_RGB ( '',0.5686274509803921400, 0.5686274509803921400, 0.5882352941176470800 ) ;
#87 = CIRCLE ( 'NONE', #83, 0.1875000000000000300 ) ;
#88 = CIRCLE ( 'NONE', #72, 0.1875000000000000300 ) ;
#89 = ADVANCED_FACE ( 'NONE', ( #82 ), #15, .T. ) ;
#90 = COLOUR_RGB ( '',0.5686274509803921400, 0.5686274509803921400, 0.5882352941176470800 ) ;
#91 = CIRCLE ( 'NONE', #80, 0.1875000000000000300 ) ;
#92 = EDGE_CURVE ( 'NONE', #9, #11, #37, .T. ) ;
#93 = EDGE_CURVE ( 'NONE', #24, #14, #35, .T. ) ;
#94 = EDGE_CURVE ( 'NONE', #11, #14, #87, .T. ) ;
#95 = EDGE_CURVE ( 'NONE', #9, #24, #91, .T. ) ;
#96 = EDGE_CURVE ( 'NONE', #24, #9, #101, .T. ) ;
#97 = EDGE_CURVE ( 'NONE', #14, #11, #88, .T. ) ;
#98 = ADVANCED_FACE ( 'NONE', ( #73 ), #79, .T. ) ;
#99 = ADVANCED_FACE ( 'NONE', ( #74 ), #63, .T. ) ;
#100 = ADVANCED_FACE ( 'NONE', ( #66 ), #115, .F. ) ;
#101 = CIRCLE ( 'NONE', #77, 0.1875000000000000300 ) ;
#102 = MANIFOLD_SOLID_BREP ( 'Boss-Extrude1', #71 ) ;
#103 = CARTESIAN_POINT ( 'NONE',  ( 0.0000000000000000000, 0.5000000000000000000, 0.0000000000000000000 ) ) ;
#104 = DIRECTION ( 'NONE',  ( 0.0000000000000000000, 1.000000000000000000, 0.0000000000000000000 ) ) ;
#105 = DIRECTION ( 'NONE',  ( 0.0000000000000000000, 0.0000000000000000000, 1.000000000000000000 ) ) ;
#106 = CARTESIAN_POINT ( 'NONE',  ( 0.0000000000000000000, 0.0000000000000000000, 0.0000000000000000000 ) ) ;
#107 = DIRECTION ( 'NONE',  ( 0.0000000000000000000, 1.000000000000000000, 0.0000000000000000000 ) ) ;
#108 = DIRECTION ( 'NONE',  ( 0.0000000000000000000, 0.0000000000000000000, 1.000000000000000000 ) ) ;
#109 = CARTESIAN_POINT ( 'NONE',  ( 0.0000000000000000000, 0.5000000000000000000, 0.0000000000000000000 ) ) ;
#110 = DIRECTION ( 'NONE',  ( -0.0000000000000000000, -1.000000000000000000, -0.0000000000000000000 ) ) ;
#111 = DIRECTION ( 'NONE',  ( 0.0000000000000000000, 0.0000000000000000000, -1.000000000000000000 ) ) ;
#112 = CARTESIAN_POINT ( 'NONE',  ( 0.0000000000000000000, 0.5000000000000000000, 0.0000000000000000000 ) ) ;
#113 = DIRECTION ( 'NONE',  ( -0.0000000000000000000, -1.000000000000000000, -0.0000000000000000000 ) ) ;
#114 = DIRECTION ( 'NONE',  ( 0.0000000000000000000, 0.0000000000000000000, -1.000000000000000000 ) ) ;
#115 = PLANE ( 'NONE',  #64 ) ;
#116 = CARTESIAN_POINT ( 'NONE',  ( 0.0000000000000000000, 0.0000000000000000000, 0.0000000000000000000 ) ) ;
#117 = DIRECTION ( 'NONE',  ( 0.0000000000000000000, 1.000000000000000000, 0.0000000000000000000 ) ) ;
#118 = DIRECTION ( 'NONE',  ( 0.0000000000000000000, -0.0000000000000000000, 1.000000000000000000 ) ) ;
#119 = FILL_AREA_STYLE_COLOUR ( '', #90 ) ;
#120 = FILL_AREA_STYLE ('',( #119 ) ) ;
#121 = SURFACE_STYLE_FILL_AREA ( #120 ) ;
#122 = SURFACE_SIDE_STYLE ('',( #121 ) ) ;
#123 = SURFACE_STYLE_USAGE ( .BOTH. , #122 ) ;
#124 = PRESENTATION_STYLE_ASSIGNMENT (( #123 ) ) ;
#125 =( LENGTH_UNIT ( ) NAMED_UNIT ( * ) SI_UNIT ( $, .METRE. ) );
#126 =( CONVERSION_BASED_UNIT ( 'INCH', #6 ) LENGTH_UNIT ( ) NAMED_UNIT ( #42 ) );
#127 =( NAMED_UNIT ( * ) PLANE_ANGLE_UNIT ( ) SI_UNIT ( $, .RADIAN. ) );
#128 =( NAMED_UNIT ( * ) SI_UNIT ( $, .STERADIAN. ) SOLID_ANGLE_UNIT ( ) );
#129 =( LENGTH_UNIT ( ) NAMED_UNIT ( * ) SI_UNIT ( $, .METRE. ) );
#130 =( CONVERSION_BASED_UNIT ( 'INCH', #1 ) LENGTH_UNIT ( ) NAMED_UNIT ( #41 ) );
#131 =( NAMED_UNIT ( * ) PLANE_ANGLE_UNIT ( ) SI_UNIT ( $, .RADIAN. ) );
#132 =( NAMED_UNIT ( * ) SI_UNIT ( $, .STERADIAN. ) SOLID_ANGLE_UNIT ( ) );
#133 = APPLICATION_PROTOCOL_DEFINITION ( 'draft international standard', 'automotive_design', 1998, #70 ) ;
#134 = FILL_AREA_STYLE_COLOUR ( '', #86 ) ;
#135 = FILL_AREA_STYLE ('',( #134 ) ) ;
#136 = SURFACE_STYLE_FILL_AREA ( #135 ) ;
#137 = SURFACE_SIDE_STYLE ('',( #136 ) ) ;
#138 = SURFACE_STYLE_USAGE ( .BOTH. , #137 ) ;
#139 = PRESENTATION_STYLE_ASSIGNMENT (( #138 ) ) ;
#140 =( LENGTH_UNIT ( ) NAMED_UNIT ( * ) SI_UNIT ( $, .METRE. ) );
#141 =( CONVERSION_BASED_UNIT ( 'INCH', #47 ) LENGTH_UNIT ( ) NAMED_UNIT ( #43 ) );
#142 =( NAMED_UNIT ( * ) PLANE_ANGLE_UNIT ( ) SI_UNIT ( $, .RADIAN. ) );
#143 =( NAMED_UNIT ( * ) SI_UNIT ( $, .STERADIAN. ) SOLID_ANGLE_UNIT ( ) );
#144 = CARTESIAN_POINT ( 'NONE',  ( 0.0000000000000000000, 0.0000000000000000000, 0.0000000000000000000 ) ) ;
#145 = DIRECTION ( 'NONE',  ( 0.0000000000000000000, 0.0000000000000000000, 1.000000000000000000 ) ) ;
#146 = DIRECTION ( 'NONE',  ( 1.000000000000000000, 0.0000000000000000000, 0.0000000000000000000 ) ) ;
#147 = SHAPE_DEFINITION_REPRESENTATION ( #39, #28 ) ;
#148 = PRODUCT_CONTEXT ( 'NONE', #70, 'mechanical' ) ;
#149 = APPLICATION_PROTOCOL_DEFINITION ( 'draft international standard', 'automotive_design', 1998, #69 ) ;
ENDSEC;
END-ISO-10303-21;
