ISO-10303-21;
HEADER;
FILE_DESCRIPTION (( 'STEP AP214' ),
    '1' );
FILE_NAME ('RD500B.step',
    '2012-04-20T21:06:26',
    ( '' ),
    ( '' ),
    'SwSTEP 2.0',
    'SolidWorks 2012',
    '' );
FILE_SCHEMA (( 'AUTOMOTIVE_DESIGN' ));
ENDSEC;

DATA;
#1 = ORIENTED_EDGE ( 'NONE', *, *, #274, .F. ) ;
#2 = FACE_OUTER_BOUND ( 'NONE', #265, .T. ) ;
#3 = FACE_OUTER_BOUND ( 'NONE', #262, .T. ) ;
#4 = CYLINDRICAL_SURFACE ( 'NONE', #10, 0.06397358199742415900 ) ;
#5 = FACE_OUTER_BOUND ( 'NONE', #256, .T. ) ;
#6 = FACE_OUTER_BOUND ( 'NONE', #263, .T. ) ;
#7 = FACE_BOUND ( 'NONE', #37, .T. ) ;
#8 = FACE_OUTER_BOUND ( 'NONE', #260, .T. ) ;
#9 = AXIS2_PLACEMENT_3D ( 'NONE', #160, #161, #162 ) ;
#10 = AXIS2_PLACEMENT_3D ( 'NONE', #156, #157, #158 ) ;
#11 = AXIS2_PLACEMENT_3D ( 'NONE', #163, #164, #165 ) ;
#12 = AXIS2_PLACEMENT_3D ( 'NONE', #204, #205, #206 ) ;
#13 = AXIS2_PLACEMENT_3D ( 'NONE', #166, #167, #168 ) ;
#14 = CYLINDRICAL_SURFACE ( 'NONE', #13, 0.06397358199742415900 ) ;
#15 = LENGTH_MEASURE_WITH_UNIT ( LENGTH_MEASURE( 0.02539999999999999900 ), #197 );
#16 = MECHANICAL_DESIGN_GEOMETRIC_PRESENTATION_REPRESENTATION (  '', ( #18 ), #342 ) ;
#17 = AXIS2_PLACEMENT_3D ( 'NONE', #188, #189, #190 ) ;
#18 = STYLED_ITEM ( 'NONE', ( #196 ), #341 ) ;
#19 = PRESENTATION_LAYER_ASSIGNMENT (  '', '', ( #18 ) ) ;
#20 = FACE_OUTER_BOUND ( 'NONE', #257, .T. ) ;
#21 = FACE_BOUND ( 'NONE', #261, .T. ) ;
#22 = CYLINDRICAL_SURFACE ( 'NONE', #24, 0.06397358199742415900 ) ;
#23 = AXIS2_PLACEMENT_3D ( 'NONE', #173, #174, #175 ) ;
#24 = AXIS2_PLACEMENT_3D ( 'NONE', #185, #186, #187 ) ;
#25 = FACE_OUTER_BOUND ( 'NONE', #258, .T. ) ;
#26 = CYLINDRICAL_SURFACE ( 'NONE', #27, 0.1249999999999999900 ) ;
#27 = AXIS2_PLACEMENT_3D ( 'NONE', #182, #183, #184 ) ;
#28 = AXIS2_PLACEMENT_3D ( 'NONE', #179, #180, #181 ) ;
#29 = FACE_OUTER_BOUND ( 'NONE', #254, .T. ) ;
#30 = AXIS2_PLACEMENT_3D ( 'NONE', #176, #177, #178 ) ;
#31 = FACE_OUTER_BOUND ( 'NONE', #255, .T. ) ;
#32 = FACE_OUTER_BOUND ( 'NONE', #264, .T. ) ;
#33 = CYLINDRICAL_SURFACE ( 'NONE', #23, 0.1249999999999999900 ) ;
#34 = AXIS2_PLACEMENT_3D ( 'NONE', #170, #171, #172 ) ;
#35 = AXIS2_PLACEMENT_3D ( 'NONE', #216, #217, #218 ) ;
#36 = EDGE_LOOP ( 'NONE', ( #253, #74, #76, #67 ) ) ;
#37 = EDGE_LOOP ( 'NONE', ( #249, #73 ) ) ;
#38 = APPLICATION_CONTEXT ( 'automotive_design' ) ;
#39 = APPLICATION_CONTEXT ( 'automotive_design' ) ;
#40 = DIMENSIONAL_EXPONENTS ( 1.000000000000000000, 0.0000000000000000000, 0.0000000000000000000, 0.0000000000000000000, 0.0000000000000000000, 0.0000000000000000000, 0.0000000000000000000 ) ;
#41 = PRODUCT ( 'RD500B', 'RD500B', '', ( #247 ) ) ;
#42 = DIMENSIONAL_EXPONENTS ( 1.000000000000000000, 0.0000000000000000000, 0.0000000000000000000, 0.0000000000000000000, 0.0000000000000000000, 0.0000000000000000000, 0.0000000000000000000 ) ;
#43 = DIMENSIONAL_EXPONENTS ( 1.000000000000000000, 0.0000000000000000000, 0.0000000000000000000, 0.0000000000000000000, 0.0000000000000000000, 0.0000000000000000000, 0.0000000000000000000 ) ;
#44 = AXIS2_PLACEMENT_3D ( 'NONE', #243, #244, #245 ) ;
#45 = PRODUCT_DEFINITION_FORMATION_WITH_SPECIFIED_SOURCE ( 'ANY', '', #41, .NOT_KNOWN. ) ;
#46 = UNCERTAINTY_MEASURE_WITH_UNIT (LENGTH_MEASURE( 1.000000000000000100E-005 ), #198, 'distance_accuracy_value', 'NONE');
#47 = UNCERTAINTY_MEASURE_WITH_UNIT (LENGTH_MEASURE( 1.000000000000000100E-005 ), #240, 'distance_accuracy_value', 'NONE');
#48 = ADVANCED_BREP_SHAPE_REPRESENTATION ( 'RD500B', ( #341, #44 ), #343 ) ;
#49 = UNCERTAINTY_MEASURE_WITH_UNIT (LENGTH_MEASURE( 1.000000000000000100E-005 ), #229, 'distance_accuracy_value', 'NONE');
#50 = ORIENTED_EDGE ( 'NONE', *, *, #357, .T. ) ;
#51 = ORIENTED_EDGE ( 'NONE', *, *, #351, .F. ) ;
#52 = ORIENTED_EDGE ( 'NONE', *, *, #353, .T. ) ;
#53 = ORIENTED_EDGE ( 'NONE', *, *, #350, .T. ) ;
#54 = ORIENTED_EDGE ( 'NONE', *, *, #353, .F. ) ;
#55 = ORIENTED_EDGE ( 'NONE', *, *, #285, .T. ) ;
#56 = ORIENTED_EDGE ( 'NONE', *, *, #351, .T. ) ;
#57 = ORIENTED_EDGE ( 'NONE', *, *, #274, .T. ) ;
#58 = ORIENTED_EDGE ( 'NONE', *, *, #280, .T. ) ;
#59 = ORIENTED_EDGE ( 'NONE', *, *, #283, .F. ) ;
#60 = ORIENTED_EDGE ( 'NONE', *, *, #277, .T. ) ;
#61 = ORIENTED_EDGE ( 'NONE', *, *, #356, .T. ) ;
#62 = ORIENTED_EDGE ( 'NONE', *, *, #279, .T. ) ;
#63 = ORIENTED_EDGE ( 'NONE', *, *, #281, .T. ) ;
#64 = ORIENTED_EDGE ( 'NONE', *, *, #275, .F. ) ;
#65 = ORIENTED_EDGE ( 'NONE', *, *, #278, .F. ) ;
#66 = ORIENTED_EDGE ( 'NONE', *, *, #280, .F. ) ;
#67 = ORIENTED_EDGE ( 'NONE', *, *, #282, .F. ) ;
#68 = ORIENTED_EDGE ( 'NONE', *, *, #286, .T. ) ;
#69 = ORIENTED_EDGE ( 'NONE', *, *, #293, .T. ) ;
#70 = ORIENTED_EDGE ( 'NONE', *, *, #355, .T. ) ;
#71 = ORIENTED_EDGE ( 'NONE', *, *, #286, .F. ) ;
#72 = ORIENTED_EDGE ( 'NONE', *, *, #284, .T. ) ;
#73 = ORIENTED_EDGE ( 'NONE', *, *, #352, .F. ) ;
#74 = ORIENTED_EDGE ( 'NONE', *, *, #352, .T. ) ;
#75 = ORIENTED_EDGE ( 'NONE', *, *, #281, .F. ) ;
#76 = ORIENTED_EDGE ( 'NONE', *, *, #278, .T. ) ;
#77 = ORIENTED_EDGE ( 'NONE', *, *, #277, .F. ) ;
#78 = ORIENTED_EDGE ( 'NONE', *, *, #284, .F. ) ;
#79 = ORIENTED_EDGE ( 'NONE', *, *, #355, .F. ) ;
#80 = ORIENTED_EDGE ( 'NONE', *, *, #276, .F. ) ;
#81 = ORIENTED_EDGE ( 'NONE', *, *, #354, .F. ) ;
#82 = ORIENTED_EDGE ( 'NONE', *, *, #279, .F. ) ;
#83 = ORIENTED_EDGE ( 'NONE', *, *, #282, .T. ) ;
#84 = ORIENTED_EDGE ( 'NONE', *, *, #275, .T. ) ;
#85 = ORIENTED_EDGE ( 'NONE', *, *, #283, .T. ) ;
#86 = VERTEX_POINT ( 'NONE', #100 ) ;
#87 = VERTEX_POINT ( 'NONE', #101 ) ;
#88 = VERTEX_POINT ( 'NONE', #102 ) ;
#89 = VERTEX_POINT ( 'NONE', #103 ) ;
#90 = VERTEX_POINT ( 'NONE', #104 ) ;
#91 = VERTEX_POINT ( 'NONE', #105 ) ;
#92 = VERTEX_POINT ( 'NONE', #106 ) ;
#93 = VERTEX_POINT ( 'NONE', #107 ) ;
#94 = VERTEX_POINT ( 'NONE', #108 ) ;
#95 = VERTEX_POINT ( 'NONE', #109 ) ;
#96 = VERTEX_POINT ( 'NONE', #110 ) ;
#97 = VERTEX_POINT ( 'NONE', #111 ) ;
#98 = VERTEX_POINT ( 'NONE', #112 ) ;
#99 = VERTEX_POINT ( 'NONE', #113 ) ;
#100 = CARTESIAN_POINT ( 'NONE',  ( 0.0000000000000000000, 0.1284786881030329500, 0.0000000000000000000 ) ) ;
#101 = CARTESIAN_POINT ( 'NONE',  ( 0.0000000000000000000, -0.2500000000000000600, -0.1249999999999999600 ) ) ;
#102 = CARTESIAN_POINT ( 'NONE',  ( 1.530808498934191200E-017, -0.2500000000000000600, 0.1249999999999999600 ) ) ;
#103 = CARTESIAN_POINT ( 'NONE',  ( 1.530808498934191200E-017, 0.2500000000000000600, 0.1249999999999999600 ) ) ;
#104 = CARTESIAN_POINT ( 'NONE',  ( 0.0000000000000000000, 0.2500000000000000600, -0.1249999999999999600 ) ) ;
#105 = CARTESIAN_POINT ( 'NONE',  ( 7.834504242313622100E-018, 0.1500000000000000500, -0.06397358199742415900 ) ) ;
#106 = CARTESIAN_POINT ( 'NONE',  ( 0.0000000000000000000, 0.1500000000000000500, 0.06397358199742415900 ) ) ;
#107 = CARTESIAN_POINT ( 'NONE',  ( -7.834504242313622100E-018, -0.1500000000000000500, -0.06397358199742415900 ) ) ;
#108 = CARTESIAN_POINT ( 'NONE',  ( 0.0000000000000000000, -0.1284786881030329500, 0.0000000000000000000 ) ) ;
#109 = CARTESIAN_POINT ( 'NONE',  ( 7.834504242313623600E-018, 0.2500000000000000600, 0.06397358199742415900 ) ) ;
#110 = CARTESIAN_POINT ( 'NONE',  ( 0.0000000000000000000, -0.1500000000000000500, 0.06397358199742415900 ) ) ;
#111 = CARTESIAN_POINT ( 'NONE',  ( -7.834504242313623600E-018, -0.2500000000000000600, 0.06397358199742415900 ) ) ;
#112 = CARTESIAN_POINT ( 'NONE',  ( 0.0000000000000000000, -0.2500000000000000600, -0.06397358199742415900 ) ) ;
#113 = CARTESIAN_POINT ( 'NONE',  ( 0.0000000000000000000, 0.2500000000000000600, -0.06397358199742415900 ) ) ;
#114 = CARTESIAN_POINT ( 'NONE',  ( 0.0000000000000000000, 0.2500000000000000600, 0.0000000000000000000 ) ) ;
#115 = DIRECTION ( 'NONE',  ( -0.0000000000000000000, -1.000000000000000000, -0.0000000000000000000 ) ) ;
#116 = DIRECTION ( 'NONE',  ( 0.0000000000000000000, 0.0000000000000000000, -1.000000000000000000 ) ) ;
#117 = CARTESIAN_POINT ( 'NONE',  ( 0.0000000000000000000, 0.1500000000000000500, 0.0000000000000000000 ) ) ;
#118 = LINE ( 'NONE', #119, #324 ) ;
#119 = CARTESIAN_POINT ( 'NONE',  ( 0.0000000000000000000, 0.0000000000000000000, -0.06397358199742415900 ) ) ;
#120 = DIRECTION ( 'NONE',  ( -0.0000000000000000000, -1.000000000000000000, -0.0000000000000000000 ) ) ;
#121 = LINE ( 'NONE', #122, #327 ) ;
#122 = CARTESIAN_POINT ( 'NONE',  ( 0.0000000000000000000, -0.1284786881030329500, 0.0000000000000000000 ) ) ;
#123 = DIRECTION ( 'NONE',  ( -1.160726392207633000E-016, -0.3188504842313396600, -0.9478050267356890000 ) ) ;
#124 = DIRECTION ( 'NONE',  ( -0.0000000000000000000, -1.000000000000000000, -0.0000000000000000000 ) ) ;
#125 = DIRECTION ( 'NONE',  ( 0.0000000000000000000, 0.0000000000000000000, -1.000000000000000000 ) ) ;
#126 = CARTESIAN_POINT ( 'NONE',  ( 0.0000000000000000000, 0.1500000000000000500, 0.0000000000000000000 ) ) ;
#127 = LINE ( 'NONE', #128, #333 ) ;
#128 = CARTESIAN_POINT ( 'NONE',  ( 0.0000000000000000000, 0.0000000000000000000, -0.06397358199742415900 ) ) ;
#129 = DIRECTION ( 'NONE',  ( -0.0000000000000000000, 1.000000000000000000, -0.0000000000000000000 ) ) ;
#130 = LINE ( 'NONE', #131, #339 ) ;
#131 = CARTESIAN_POINT ( 'NONE',  ( 0.0000000000000000000, 0.0000000000000000000, -0.1249999999999999900 ) ) ;
#132 = DIRECTION ( 'NONE',  ( -0.0000000000000000000, -1.000000000000000000, -0.0000000000000000000 ) ) ;
#133 = DIRECTION ( 'NONE',  ( -0.0000000000000000000, -1.000000000000000000, -0.0000000000000000000 ) ) ;
#134 = DIRECTION ( 'NONE',  ( 0.0000000000000000000, 0.0000000000000000000, -1.000000000000000000 ) ) ;
#135 = CARTESIAN_POINT ( 'NONE',  ( 0.0000000000000000000, -0.1500000000000000500, 0.0000000000000000000 ) ) ;
#136 = LINE ( 'NONE', #137, #336 ) ;
#137 = CARTESIAN_POINT ( 'NONE',  ( 0.0000000000000000000, 0.1284786881030329500, 0.0000000000000000000 ) ) ;
#138 = DIRECTION ( 'NONE',  ( 0.0000000000000000000, 0.3188504842313396600, 0.9478050267356890000 ) ) ;
#139 = DIRECTION ( 'NONE',  ( 0.0000000000000000000, -1.000000000000000000, 0.0000000000000000000 ) ) ;
#140 = DIRECTION ( 'NONE',  ( 0.0000000000000000000, 0.0000000000000000000, -1.000000000000000000 ) ) ;
#141 = CARTESIAN_POINT ( 'NONE',  ( 0.0000000000000000000, 0.2500000000000000600, 0.0000000000000000000 ) ) ;
#142 = LINE ( 'NONE', #143, #325 ) ;
#143 = CARTESIAN_POINT ( 'NONE',  ( 1.530808498934191200E-017, 0.0000000000000000000, 0.1249999999999999900 ) ) ;
#144 = DIRECTION ( 'NONE',  ( -0.0000000000000000000, -1.000000000000000000, -0.0000000000000000000 ) ) ;
#145 = LINE ( 'NONE', #146, #323 ) ;
#146 = CARTESIAN_POINT ( 'NONE',  ( 0.0000000000000000000, -0.1284786881030329500, 0.0000000000000000000 ) ) ;
#147 = DIRECTION ( 'NONE',  ( 0.0000000000000000000, -0.3188504842313396600, 0.9478050267356890000 ) ) ;
#148 = LINE ( 'NONE', #149, #340 ) ;
#149 = CARTESIAN_POINT ( 'NONE',  ( 0.0000000000000000000, 0.1284786881030329500, 0.0000000000000000000 ) ) ;
#150 = DIRECTION ( 'NONE',  ( 1.160726392207633000E-016, 0.3188504842313396600, -0.9478050267356890000 ) ) ;
#151 = DIRECTION ( 'NONE',  ( -0.0000000000000000000, -1.000000000000000000, -0.0000000000000000000 ) ) ;
#152 = DIRECTION ( 'NONE',  ( 0.0000000000000000000, 0.0000000000000000000, -1.000000000000000000 ) ) ;
#153 = CARTESIAN_POINT ( 'NONE',  ( 0.0000000000000000000, -0.1500000000000000500, 0.0000000000000000000 ) ) ;
#154 = DIRECTION ( 'NONE',  ( 0.0000000000000000000, -1.000000000000000000, 0.0000000000000000000 ) ) ;
#155 = DIRECTION ( 'NONE',  ( 0.0000000000000000000, 0.0000000000000000000, -1.000000000000000000 ) ) ;
#156 = CARTESIAN_POINT ( 'NONE',  ( 0.0000000000000000000, 0.0000000000000000000, 0.0000000000000000000 ) ) ;
#157 = DIRECTION ( 'NONE',  ( -0.0000000000000000000, 1.000000000000000000, -0.0000000000000000000 ) ) ;
#158 = DIRECTION ( 'NONE',  ( 0.0000000000000000000, 0.0000000000000000000, -1.000000000000000000 ) ) ;
#159 = PLANE ( 'NONE',  #9 ) ;
#160 = CARTESIAN_POINT ( 'NONE',  ( 0.0000000000000000000, -0.2500000000000000600, 0.0000000000000000000 ) ) ;
#161 = DIRECTION ( 'NONE',  ( -0.0000000000000000000, 1.000000000000000000, 0.0000000000000000000 ) ) ;
#162 = DIRECTION ( 'NONE',  ( 0.0000000000000000000, 0.0000000000000000000, -1.000000000000000000 ) ) ;
#163 = CARTESIAN_POINT ( 'NONE',  ( 0.0000000000000000000, -39.49855742826051100, 0.0000000000000000000 ) ) ;
#164 = DIRECTION ( 'NONE',  ( 0.0000000000000000000, -1.000000000000000000, 0.0000000000000000000 ) ) ;
#165 = DIRECTION ( 'NONE',  ( 0.0000000000000000000, 0.0000000000000000000, 1.000000000000000000 ) ) ;
#166 = CARTESIAN_POINT ( 'NONE',  ( 0.0000000000000000000, 0.0000000000000000000, 0.0000000000000000000 ) ) ;
#167 = DIRECTION ( 'NONE',  ( -0.0000000000000000000, -1.000000000000000000, -0.0000000000000000000 ) ) ;
#168 = DIRECTION ( 'NONE',  ( 0.0000000000000000000, 0.0000000000000000000, -1.000000000000000000 ) ) ;
#169 = PLANE ( 'NONE',  #34 ) ;
#170 = CARTESIAN_POINT ( 'NONE',  ( 0.0000000000000000000, 0.2500000000000000600, 0.0000000000000000000 ) ) ;
#171 = DIRECTION ( 'NONE',  ( 0.0000000000000000000, -1.000000000000000000, -0.0000000000000000000 ) ) ;
#172 = DIRECTION ( 'NONE',  ( 0.0000000000000000000, 0.0000000000000000000, -1.000000000000000000 ) ) ;
#173 = CARTESIAN_POINT ( 'NONE',  ( 0.0000000000000000000, 0.0000000000000000000, 0.0000000000000000000 ) ) ;
#174 = DIRECTION ( 'NONE',  ( -0.0000000000000000000, -1.000000000000000000, -0.0000000000000000000 ) ) ;
#175 = DIRECTION ( 'NONE',  ( 0.0000000000000000000, 0.0000000000000000000, -1.000000000000000000 ) ) ;
#176 = CARTESIAN_POINT ( 'NONE',  ( 0.0000000000000000000, 39.49855742826051100, 0.0000000000000000000 ) ) ;
#177 = DIRECTION ( 'NONE',  ( 0.0000000000000000000, 1.000000000000000000, 0.0000000000000000000 ) ) ;
#178 = DIRECTION ( 'NONE',  ( 0.0000000000000000000, 0.0000000000000000000, 1.000000000000000000 ) ) ;
#179 = CARTESIAN_POINT ( 'NONE',  ( 0.0000000000000000000, 39.49855742826051100, 0.0000000000000000000 ) ) ;
#180 = DIRECTION ( 'NONE',  ( 0.0000000000000000000, 1.000000000000000000, 0.0000000000000000000 ) ) ;
#181 = DIRECTION ( 'NONE',  ( 0.0000000000000000000, 0.0000000000000000000, 1.000000000000000000 ) ) ;
#182 = CARTESIAN_POINT ( 'NONE',  ( 0.0000000000000000000, 0.0000000000000000000, 0.0000000000000000000 ) ) ;
#183 = DIRECTION ( 'NONE',  ( -0.0000000000000000000, -1.000000000000000000, -0.0000000000000000000 ) ) ;
#184 = DIRECTION ( 'NONE',  ( 0.0000000000000000000, 0.0000000000000000000, -1.000000000000000000 ) ) ;
#185 = CARTESIAN_POINT ( 'NONE',  ( 0.0000000000000000000, 0.0000000000000000000, 0.0000000000000000000 ) ) ;
#186 = DIRECTION ( 'NONE',  ( -0.0000000000000000000, -1.000000000000000000, -0.0000000000000000000 ) ) ;
#187 = DIRECTION ( 'NONE',  ( 0.0000000000000000000, 0.0000000000000000000, -1.000000000000000000 ) ) ;
#188 = CARTESIAN_POINT ( 'NONE',  ( 0.0000000000000000000, -39.49855742826051100, 0.0000000000000000000 ) ) ;
#189 = DIRECTION ( 'NONE',  ( 0.0000000000000000000, -1.000000000000000000, 0.0000000000000000000 ) ) ;
#190 = DIRECTION ( 'NONE',  ( 0.0000000000000000000, 0.0000000000000000000, 1.000000000000000000 ) ) ;
#191 = FILL_AREA_STYLE_COLOUR ( '', #290 ) ;
#192 = FILL_AREA_STYLE ('',( #191 ) ) ;
#193 = SURFACE_STYLE_FILL_AREA ( #192 ) ;
#194 = SURFACE_SIDE_STYLE ('',( #193 ) ) ;
#195 = SURFACE_STYLE_USAGE ( .BOTH. , #194 ) ;
#196 = PRESENTATION_STYLE_ASSIGNMENT (( #195 ) ) ;
#197 =( LENGTH_UNIT ( ) NAMED_UNIT ( * ) SI_UNIT ( $, .METRE. ) );
#198 =( CONVERSION_BASED_UNIT ( 'INCH', #15 ) LENGTH_UNIT ( ) NAMED_UNIT ( #42 ) );
#199 =( NAMED_UNIT ( * ) PLANE_ANGLE_UNIT ( ) SI_UNIT ( $, .RADIAN. ) );
#200 =( NAMED_UNIT ( * ) SI_UNIT ( $, .STERADIAN. ) SOLID_ANGLE_UNIT ( ) );
#201 = CARTESIAN_POINT ( 'NONE',  ( 0.0000000000000000000, 0.0000000000000000000, 0.0000000000000000000 ) ) ;
#202 = DIRECTION ( 'NONE',  ( -0.0000000000000000000, 1.000000000000000000, -0.0000000000000000000 ) ) ;
#203 = DIRECTION ( 'NONE',  ( 0.0000000000000000000, 0.0000000000000000000, -1.000000000000000000 ) ) ;
#204 = CARTESIAN_POINT ( 'NONE',  ( 0.0000000000000000000, -0.2500000000000000600, 0.0000000000000000000 ) ) ;
#205 = DIRECTION ( 'NONE',  ( 0.0000000000000000000, -1.000000000000000000, 0.0000000000000000000 ) ) ;
#206 = DIRECTION ( 'NONE',  ( 0.0000000000000000000, 0.0000000000000000000, -1.000000000000000000 ) ) ;
#207 = CARTESIAN_POINT ( 'NONE',  ( 0.0000000000000000000, 0.2500000000000000600, 0.0000000000000000000 ) ) ;
#208 = DIRECTION ( 'NONE',  ( -0.0000000000000000000, -1.000000000000000000, -0.0000000000000000000 ) ) ;
#209 = DIRECTION ( 'NONE',  ( 0.0000000000000000000, 0.0000000000000000000, -1.000000000000000000 ) ) ;
#210 = CARTESIAN_POINT ( 'NONE',  ( 0.0000000000000000000, -0.2500000000000000600, 0.0000000000000000000 ) ) ;
#211 = DIRECTION ( 'NONE',  ( 0.0000000000000000000, -1.000000000000000000, 0.0000000000000000000 ) ) ;
#212 = DIRECTION ( 'NONE',  ( 0.0000000000000000000, 0.0000000000000000000, -1.000000000000000000 ) ) ;
#213 = CARTESIAN_POINT ( 'NONE',  ( 0.0000000000000000000, 0.2500000000000000600, 0.0000000000000000000 ) ) ;
#214 = DIRECTION ( 'NONE',  ( -0.0000000000000000000, -1.000000000000000000, -0.0000000000000000000 ) ) ;
#215 = DIRECTION ( 'NONE',  ( 0.0000000000000000000, 0.0000000000000000000, -1.000000000000000000 ) ) ;
#216 = CARTESIAN_POINT ( 'NONE',  ( 0.0000000000000000000, -0.2500000000000000600, 0.0000000000000000000 ) ) ;
#217 = DIRECTION ( 'NONE',  ( 0.0000000000000000000, -1.000000000000000000, 0.0000000000000000000 ) ) ;
#218 = DIRECTION ( 'NONE',  ( 0.0000000000000000000, 0.0000000000000000000, -1.000000000000000000 ) ) ;
#219 = CARTESIAN_POINT ( 'NONE',  ( 0.0000000000000000000, -0.2500000000000000600, 0.0000000000000000000 ) ) ;
#220 = LINE ( 'NONE', #221, #311 ) ;
#221 = CARTESIAN_POINT ( 'NONE',  ( 7.834504242313623600E-018, 0.0000000000000000000, 0.06397358199742415900 ) ) ;
#222 = DIRECTION ( 'NONE',  ( -0.0000000000000000000, -1.000000000000000000, -0.0000000000000000000 ) ) ;
#223 = LINE ( 'NONE', #224, #309 ) ;
#224 = CARTESIAN_POINT ( 'NONE',  ( -7.834504242313623600E-018, 0.0000000000000000000, 0.06397358199742415900 ) ) ;
#225 = DIRECTION ( 'NONE',  ( -0.0000000000000000000, 1.000000000000000000, -0.0000000000000000000 ) ) ;
#226 = DIRECTION ( 'NONE',  ( 0.0000000000000000000, -1.000000000000000000, 0.0000000000000000000 ) ) ;
#227 = DIRECTION ( 'NONE',  ( 0.0000000000000000000, 0.0000000000000000000, -1.000000000000000000 ) ) ;
#228 =( LENGTH_UNIT ( ) NAMED_UNIT ( * ) SI_UNIT ( $, .METRE. ) );
#229 =( CONVERSION_BASED_UNIT ( 'INCH', #312 ) LENGTH_UNIT ( ) NAMED_UNIT ( #43 ) );
#230 =( NAMED_UNIT ( * ) PLANE_ANGLE_UNIT ( ) SI_UNIT ( $, .RADIAN. ) );
#231 =( NAMED_UNIT ( * ) SI_UNIT ( $, .STERADIAN. ) SOLID_ANGLE_UNIT ( ) );
#232 = APPLICATION_PROTOCOL_DEFINITION ( 'draft international standard', 'automotive_design', 1998, #38 ) ;
#233 = FILL_AREA_STYLE_COLOUR ( '', #334 ) ;
#234 = FILL_AREA_STYLE ('',( #233 ) ) ;
#235 = SURFACE_STYLE_FILL_AREA ( #234 ) ;
#236 = SURFACE_SIDE_STYLE ('',( #235 ) ) ;
#237 = SURFACE_STYLE_USAGE ( .BOTH. , #236 ) ;
#238 = PRESENTATION_STYLE_ASSIGNMENT (( #237 ) ) ;
#239 =( LENGTH_UNIT ( ) NAMED_UNIT ( * ) SI_UNIT ( $, .METRE. ) );
#240 =( CONVERSION_BASED_UNIT ( 'INCH', #317 ) LENGTH_UNIT ( ) NAMED_UNIT ( #40 ) );
#241 =( NAMED_UNIT ( * ) PLANE_ANGLE_UNIT ( ) SI_UNIT ( $, .RADIAN. ) );
#242 =( NAMED_UNIT ( * ) SI_UNIT ( $, .STERADIAN. ) SOLID_ANGLE_UNIT ( ) );
#243 = CARTESIAN_POINT ( 'NONE',  ( 0.0000000000000000000, 0.0000000000000000000, 0.0000000000000000000 ) ) ;
#244 = DIRECTION ( 'NONE',  ( 0.0000000000000000000, 0.0000000000000000000, 1.000000000000000000 ) ) ;
#245 = DIRECTION ( 'NONE',  ( 1.000000000000000000, 0.0000000000000000000, 0.0000000000000000000 ) ) ;
#246 = SHAPE_DEFINITION_REPRESENTATION ( #346, #48 ) ;
#247 = PRODUCT_CONTEXT ( 'NONE', #38, 'mechanical' ) ;
#248 = APPLICATION_PROTOCOL_DEFINITION ( 'draft international standard', 'automotive_design', 1998, #39 ) ;
#249 = ORIENTED_EDGE ( 'NONE', *, *, #357, .F. ) ;
#250 = ORIENTED_EDGE ( 'NONE', *, *, #354, .T. ) ;
#251 = ORIENTED_EDGE ( 'NONE', *, *, #350, .F. ) ;
#252 = ORIENTED_EDGE ( 'NONE', *, *, #285, .F. ) ;
#253 = ORIENTED_EDGE ( 'NONE', *, *, #356, .F. ) ;
#254 = EDGE_LOOP ( 'NONE', ( #56, #85, #81, #82 ) ) ;
#255 = EDGE_LOOP ( 'NONE', ( #75, #55, #77 ) ) ;
#256 = EDGE_LOOP ( 'NONE', ( #252, #63, #66 ) ) ;
#257 = EDGE_LOOP ( 'NONE', ( #59, #68, #62, #251 ) ) ;
#258 = EDGE_LOOP ( 'NONE', ( #78, #266, #69 ) ) ;
#259 = EDGE_LOOP ( 'NONE', ( #50, #61, #267, #65 ) ) ;
#260 = EDGE_LOOP ( 'NONE', ( #51, #71 ) ) ;
#261 = EDGE_LOOP ( 'NONE', ( #52, #57 ) ) ;
#262 = EDGE_LOOP ( 'NONE', ( #79, #54, #84, #58 ) ) ;
#263 = EDGE_LOOP ( 'NONE', ( #250, #53 ) ) ;
#264 = EDGE_LOOP ( 'NONE', ( #1, #70, #60, #64 ) ) ;
#265 = EDGE_LOOP ( 'NONE', ( #80, #72, #83 ) ) ;
#266 = ORIENTED_EDGE ( 'NONE', *, *, #276, .T. ) ;
#267 = ORIENTED_EDGE ( 'NONE', *, *, #293, .F. ) ;
#268 = CIRCLE ( 'NONE', #337, 0.06397358199742415900 ) ;
#269 = CIRCLE ( 'NONE', #338, 0.06397358199742415900 ) ;
#270 = CIRCLE ( 'NONE', #321, 0.1249999999999999600 ) ;
#271 = CIRCLE ( 'NONE', #320, 0.06397358199742415900 ) ;
#272 = CONICAL_SURFACE ( 'NONE', #11, 117.0302708583230500, 1.246279906130334500 ) ;
#273 = CONICAL_SURFACE ( 'NONE', #30, 117.0302708583230500, 1.246279906130334500 ) ;
#274 = EDGE_CURVE ( 'NONE', #95, #99, #305, .T. ) ;
#275 = EDGE_CURVE ( 'NONE', #99, #91, #118, .T. ) ;
#276 = EDGE_CURVE ( 'NONE', #94, #93, #121, .T. ) ;
#277 = EDGE_CURVE ( 'NONE', #92, #91, #348, .T. ) ;
#278 = EDGE_CURVE ( 'NONE', #98, #93, #127, .T. ) ;
#279 = EDGE_CURVE ( 'NONE', #90, #87, #130, .T. ) ;
#280 = EDGE_CURVE ( 'NONE', #91, #92, #268, .T. ) ;
#281 = EDGE_CURVE ( 'NONE', #86, #92, #136, .T. ) ;
#282 = EDGE_CURVE ( 'NONE', #96, #93, #269, .T. ) ;
#283 = EDGE_CURVE ( 'NONE', #89, #88, #142, .T. ) ;
#284 = EDGE_CURVE ( 'NONE', #94, #96, #145, .T. ) ;
#285 = EDGE_CURVE ( 'NONE', #86, #91, #148, .T. ) ;
#286 = EDGE_CURVE ( 'NONE', #89, #90, #270, .T. ) ;
#287 = CONICAL_SURFACE ( 'NONE', #28, 117.0302708583230500, 1.246279906130334500 ) ;
#288 = CONICAL_SURFACE ( 'NONE', #17, 117.0302708583230500, 1.246279906130334500 ) ;
#289 = CIRCLE ( 'NONE', #313, 0.1249999999999999600 ) ;
#290 = COLOUR_RGB ( '',0.5686274509803921400, 0.5686274509803921400, 0.5882352941176470800 ) ;
#291 = CIRCLE ( 'NONE', #12, 0.1249999999999999600 ) ;
#292 = CIRCLE ( 'NONE', #314, 0.06397358199742415900 ) ;
#293 = EDGE_CURVE ( 'NONE', #93, #96, #271, .T. ) ;
#294 = ADVANCED_FACE ( 'NONE', ( #328 ), #4, .F. ) ;
#295 = ADVANCED_FACE ( 'NONE', ( #6, #7 ), #159, .F. ) ;
#296 = ADVANCED_FACE ( 'NONE', ( #2 ), #272, .F. ) ;
#297 = ADVANCED_FACE ( 'NONE', ( #3 ), #14, .F. ) ;
#298 = ADVANCED_FACE ( 'NONE', ( #8, #21 ), #169, .F. ) ;
#299 = ADVANCED_FACE ( 'NONE', ( #20 ), #33, .T. ) ;
#300 = ADVANCED_FACE ( 'NONE', ( #5 ), #273, .F. ) ;
#301 = ADVANCED_FACE ( 'NONE', ( #31 ), #287, .F. ) ;
#302 = ADVANCED_FACE ( 'NONE', ( #29 ), #26, .T. ) ;
#303 = ADVANCED_FACE ( 'NONE', ( #32 ), #22, .F. ) ;
#304 = ADVANCED_FACE ( 'NONE', ( #25 ), #288, .F. ) ;
#305 = CIRCLE ( 'NONE', #322, 0.06397358199742415900 ) ;
#306 = MECHANICAL_DESIGN_GEOMETRIC_PRESENTATION_REPRESENTATION (  '', ( #308 ), #344 ) ;
#307 = PRESENTATION_LAYER_ASSIGNMENT (  '', '', ( #308 ) ) ;
#308 = STYLED_ITEM ( 'NONE', ( #238 ), #48 ) ;
#309 = VECTOR ( 'NONE', #225, 39.37007874015748100 ) ;
#310 = AXIS2_PLACEMENT_3D ( 'NONE', #219, #226, #227 ) ;
#311 = VECTOR ( 'NONE', #222, 39.37007874015748100 ) ;
#312 = LENGTH_MEASURE_WITH_UNIT ( LENGTH_MEASURE( 0.02539999999999999900 ), #228 );
#313 = AXIS2_PLACEMENT_3D ( 'NONE', #207, #208, #209 ) ;
#314 = AXIS2_PLACEMENT_3D ( 'NONE', #210, #211, #212 ) ;
#315 = CYLINDRICAL_SURFACE ( 'NONE', #316, 0.06397358199742415900 ) ;
#316 = AXIS2_PLACEMENT_3D ( 'NONE', #201, #202, #203 ) ;
#317 = LENGTH_MEASURE_WITH_UNIT ( LENGTH_MEASURE( 0.02539999999999999900 ), #239 );
#318 = AXIS2_PLACEMENT_3D ( 'NONE', #213, #214, #215 ) ;
#319 = FACE_OUTER_BOUND ( 'NONE', #259, .T. ) ;
#320 = AXIS2_PLACEMENT_3D ( 'NONE', #153, #154, #155 ) ;
#321 = AXIS2_PLACEMENT_3D ( 'NONE', #141, #151, #152 ) ;
#322 = AXIS2_PLACEMENT_3D ( 'NONE', #114, #115, #116 ) ;
#323 = VECTOR ( 'NONE', #147, 39.37007874015748900 ) ;
#324 = VECTOR ( 'NONE', #120, 39.37007874015748100 ) ;
#325 = VECTOR ( 'NONE', #144, 39.37007874015748100 ) ;
#326 = AXIS2_PLACEMENT_3D ( 'NONE', #117, #124, #125 ) ;
#327 = VECTOR ( 'NONE', #123, 39.37007874015748900 ) ;
#328 = FACE_OUTER_BOUND ( 'NONE', #36, .T. ) ;
#329 = CLOSED_SHELL ( 'NONE', ( #349, #304, #303, #302, #301, #300, #299, #298, #297, #296, #295, #294 ) ) ;
#330 = CIRCLE ( 'NONE', #318, 0.06397358199742415900 ) ;
#331 = CIRCLE ( 'NONE', #35, 0.1249999999999999600 ) ;
#332 = CIRCLE ( 'NONE', #310, 0.06397358199742415900 ) ;
#333 = VECTOR ( 'NONE', #129, 39.37007874015748100 ) ;
#334 = COLOUR_RGB ( '',0.5686274509803921400, 0.5686274509803921400, 0.5882352941176470800 ) ;
#335 = PRODUCT_DEFINITION ( 'UNKNOWN', '', #45, #347 ) ;
#336 = VECTOR ( 'NONE', #138, 39.37007874015748900 ) ;
#337 = AXIS2_PLACEMENT_3D ( 'NONE', #126, #133, #134 ) ;
#338 = AXIS2_PLACEMENT_3D ( 'NONE', #135, #139, #140 ) ;
#339 = VECTOR ( 'NONE', #132, 39.37007874015748100 ) ;
#340 = VECTOR ( 'NONE', #150, 39.37007874015748900 ) ;
#341 = MANIFOLD_SOLID_BREP ( 'Mirror1', #329 ) ;
#342 =( GEOMETRIC_REPRESENTATION_CONTEXT ( 3 ) GLOBAL_UNCERTAINTY_ASSIGNED_CONTEXT ( ( #46 ) ) GLOBAL_UNIT_ASSIGNED_CONTEXT ( ( #198, #199, #200 ) ) REPRESENTATION_CONTEXT ( 'NONE', 'WORKASPACE' ) );
#343 =( GEOMETRIC_REPRESENTATION_CONTEXT ( 3 ) GLOBAL_UNCERTAINTY_ASSIGNED_CONTEXT ( ( #49 ) ) GLOBAL_UNIT_ASSIGNED_CONTEXT ( ( #229, #230, #231 ) ) REPRESENTATION_CONTEXT ( 'NONE', 'WORKASPACE' ) );
#344 =( GEOMETRIC_REPRESENTATION_CONTEXT ( 3 ) GLOBAL_UNCERTAINTY_ASSIGNED_CONTEXT ( ( #47 ) ) GLOBAL_UNIT_ASSIGNED_CONTEXT ( ( #240, #241, #242 ) ) REPRESENTATION_CONTEXT ( 'NONE', 'WORKASPACE' ) );
#345 = PRODUCT_RELATED_PRODUCT_CATEGORY ( 'part', '', ( #41 ) ) ;
#346 = PRODUCT_DEFINITION_SHAPE ( 'NONE', 'NONE',  #335 ) ;
#347 = PRODUCT_DEFINITION_CONTEXT ( 'detailed design', #39, 'design' ) ;
#348 = CIRCLE ( 'NONE', #326, 0.06397358199742415900 ) ;
#349 = ADVANCED_FACE ( 'NONE', ( #319 ), #315, .F. ) ;
#350 = EDGE_CURVE ( 'NONE', #88, #87, #291, .T. ) ;
#351 = EDGE_CURVE ( 'NONE', #90, #89, #289, .T. ) ;
#352 = EDGE_CURVE ( 'NONE', #97, #98, #292, .T. ) ;
#353 = EDGE_CURVE ( 'NONE', #99, #95, #330, .T. ) ;
#354 = EDGE_CURVE ( 'NONE', #87, #88, #331, .T. ) ;
#355 = EDGE_CURVE ( 'NONE', #95, #92, #220, .T. ) ;
#356 = EDGE_CURVE ( 'NONE', #97, #96, #223, .T. ) ;
#357 = EDGE_CURVE ( 'NONE', #98, #97, #332, .T. ) ;
ENDSEC;
END-ISO-10303-21;
