ISO-10303-21;
HEADER;
FILE_DESCRIPTION (( 'STEP AP214' ),
    '1' );
FILE_NAME ('RH500D-F2.step',
    '2012-04-20T21:06:35',
    ( '' ),
    ( '' ),
    'SwSTEP 2.0',
    'SolidWorks 2012',
    '' );
FILE_SCHEMA (( 'AUTOMOTIVE_DESIGN' ));
ENDSEC;

DATA;
#1 = ORIENTED_EDGE ( 'NONE', *, *, #98, .F. ) ;
#2 =( GEOMETRIC_REPRESENTATION_CONTEXT ( 3 ) GLOBAL_UNCERTAINTY_ASSIGNED_CONTEXT ( ( #62 ) ) GLOBAL_UNIT_ASSIGNED_CONTEXT ( ( #304, #305, #306 ) ) REPRESENTATION_CONTEXT ( 'NONE', 'WORKASPACE' ) );
#3 =( GEOMETRIC_REPRESENTATION_CONTEXT ( 3 ) GLOBAL_UNCERTAINTY_ASSIGNED_CONTEXT ( ( #64 ) ) GLOBAL_UNIT_ASSIGNED_CONTEXT ( ( #288, #289, #290 ) ) REPRESENTATION_CONTEXT ( 'NONE', 'WORKASPACE' ) );
#4 =( GEOMETRIC_REPRESENTATION_CONTEXT ( 3 ) GLOBAL_UNCERTAINTY_ASSIGNED_CONTEXT ( ( #63 ) ) GLOBAL_UNIT_ASSIGNED_CONTEXT ( ( #315, #316, #317 ) ) REPRESENTATION_CONTEXT ( 'NONE', 'WORKASPACE' ) );
#5 = ORIENTED_EDGE ( 'NONE', *, *, #79, .F. ) ;
#6 = ORIENTED_EDGE ( 'NONE', *, *, #96, .F. ) ;
#7 = ORIENTED_EDGE ( 'NONE', *, *, #77, .T. ) ;
#8 = ORIENTED_EDGE ( 'NONE', *, *, #91, .F. ) ;
#9 = ORIENTED_EDGE ( 'NONE', *, *, #94, .T. ) ;
#10 = ORIENTED_EDGE ( 'NONE', *, *, #81, .T. ) ;
#11 = ORIENTED_EDGE ( 'NONE', *, *, #82, .T. ) ;
#12 = ORIENTED_EDGE ( 'NONE', *, *, #95, .F. ) ;
#13 = AXIS2_PLACEMENT_3D ( 'NONE', #213, #226, #227 ) ;
#14 = VECTOR ( 'NONE', #216, 39.37007874015748100 ) ;
#15 = VECTOR ( 'NONE', #219, 39.37007874015748100 ) ;
#16 = VECTOR ( 'NONE', #222, 39.37007874015748100 ) ;
#17 = AXIS2_PLACEMENT_3D ( 'NONE', #231, #232, #233 ) ;
#18 = VECTOR ( 'NONE', #225, 39.37007874015748100 ) ;
#19 = AXIS2_PLACEMENT_3D ( 'NONE', #228, #229, #230 ) ;
#20 = AXIS2_PLACEMENT_3D ( 'NONE', #234, #238, #239 ) ;
#21 = AXIS2_PLACEMENT_3D ( 'NONE', #272, #273, #274 ) ;
#22 = VECTOR ( 'NONE', #237, 39.37007874015748100 ) ;
#23 = FACE_OUTER_BOUND ( 'NONE', #164, .T. ) ;
#24 = FACE_OUTER_BOUND ( 'NONE', #163, .T. ) ;
#25 = VECTOR ( 'NONE', #246, 39.37007874015748100 ) ;
#26 = FACE_OUTER_BOUND ( 'NONE', #161, .T. ) ;
#27 = AXIS2_PLACEMENT_3D ( 'NONE', #249, #250, #251 ) ;
#28 = FACE_OUTER_BOUND ( 'NONE', #162, .T. ) ;
#29 = AXIS2_PLACEMENT_3D ( 'NONE', #252, #253, #254 ) ;
#30 = AXIS2_PLACEMENT_3D ( 'NONE', #255, #256, #257 ) ;
#31 = CYLINDRICAL_SURFACE ( 'NONE', #30, 0.07749999999999995800 ) ;
#32 = FACE_OUTER_BOUND ( 'NONE', #160, .T. ) ;
#33 = AXIS2_PLACEMENT_3D ( 'NONE', #258, #259, #260 ) ;
#34 = CYLINDRICAL_SURFACE ( 'NONE', #33, 0.2500000000000000000 ) ;
#35 = FACE_BOUND ( 'NONE', #159, .T. ) ;
#36 = AXIS2_PLACEMENT_3D ( 'NONE', #261, #262, #263 ) ;
#37 = CYLINDRICAL_SURFACE ( 'NONE', #36, 0.2500000000000000000 ) ;
#38 = FACE_OUTER_BOUND ( 'NONE', #156, .T. ) ;
#39 = FACE_OUTER_BOUND ( 'NONE', #158, .T. ) ;
#40 = FACE_BOUND ( 'NONE', #157, .T. ) ;
#41 = FACE_OUTER_BOUND ( 'NONE', #154, .T. ) ;
#42 = AXIS2_PLACEMENT_3D ( 'NONE', #265, #266, #267 ) ;
#43 = FACE_OUTER_BOUND ( 'NONE', #155, .T. ) ;
#44 = LENGTH_MEASURE_WITH_UNIT ( LENGTH_MEASURE( 0.02539999999999999900 ), #303 );
#45 = AXIS2_PLACEMENT_3D ( 'NONE', #269, #270, #271 ) ;
#46 = CYLINDRICAL_SURFACE ( 'NONE', #21, 0.07749999999999995800 ) ;
#47 = PRESENTATION_LAYER_ASSIGNMENT (  '', '', ( #50 ) ) ;
#48 = FACE_OUTER_BOUND ( 'NONE', #153, .T. ) ;
#49 = AXIS2_PLACEMENT_3D ( 'NONE', #275, #276, #277 ) ;
#50 = STYLED_ITEM ( 'NONE', ( #286 ), #146 ) ;
#51 = AXIS2_PLACEMENT_3D ( 'NONE', #278, #279, #280 ) ;
#52 = MECHANICAL_DESIGN_GEOMETRIC_PRESENTATION_REPRESENTATION (  '', ( #50 ), #3 ) ;
#53 = LENGTH_MEASURE_WITH_UNIT ( LENGTH_MEASURE( 0.02539999999999999900 ), #287 );
#54 = STYLED_ITEM ( 'NONE', ( #313 ), #61 ) ;
#55 = PRESENTATION_LAYER_ASSIGNMENT (  '', '', ( #54 ) ) ;
#56 = MECHANICAL_DESIGN_GEOMETRIC_PRESENTATION_REPRESENTATION (  '', ( #54 ), #4 ) ;
#57 = LENGTH_MEASURE_WITH_UNIT ( LENGTH_MEASURE( 0.02539999999999999900 ), #314 );
#58 = AXIS2_PLACEMENT_3D ( 'NONE', #318, #319, #320 ) ;
#59 = PRODUCT_DEFINITION_FORMATION_WITH_SPECIFIED_SOURCE ( 'ANY', '', #101, .NOT_KNOWN. ) ;
#60 = ORIENTED_EDGE ( 'NONE', *, *, #90, .T. ) ;
#61 = ADVANCED_BREP_SHAPE_REPRESENTATION ( 'RH500D-F2', ( #146, #58 ), #2 ) ;
#62 = UNCERTAINTY_MEASURE_WITH_UNIT (LENGTH_MEASURE( 1.000000000000000100E-005 ), #304, 'distance_accuracy_value', 'NONE');
#63 = UNCERTAINTY_MEASURE_WITH_UNIT (LENGTH_MEASURE( 1.000000000000000100E-005 ), #315, 'distance_accuracy_value', 'NONE');
#64 = UNCERTAINTY_MEASURE_WITH_UNIT (LENGTH_MEASURE( 1.000000000000000100E-005 ), #288, 'distance_accuracy_value', 'NONE');
#65 = ORIENTED_EDGE ( 'NONE', *, *, #82, .F. ) ;
#66 = ORIENTED_EDGE ( 'NONE', *, *, #87, .F. ) ;
#67 = ORIENTED_EDGE ( 'NONE', *, *, #81, .F. ) ;
#68 = ORIENTED_EDGE ( 'NONE', *, *, #104, .T. ) ;
#69 = ORIENTED_EDGE ( 'NONE', *, *, #92, .T. ) ;
#70 = ORIENTED_EDGE ( 'NONE', *, *, #77, .F. ) ;
#71 = ORIENTED_EDGE ( 'NONE', *, *, #97, .T. ) ;
#72 = ORIENTED_EDGE ( 'NONE', *, *, #80, .F. ) ;
#73 = ORIENTED_EDGE ( 'NONE', *, *, #79, .T. ) ;
#74 = PRODUCT_DEFINITION_CONTEXT ( 'detailed design', #84, 'design' ) ;
#75 = PRODUCT_DEFINITION_SHAPE ( 'NONE', 'NONE',  #133 ) ;
#76 = ORIENTED_EDGE ( 'NONE', *, *, #92, .F. ) ;
#77 = EDGE_CURVE ( 'NONE', #186, #188, #189, .T. ) ;
#78 = EDGE_CURVE ( 'NONE', #187, #188, #93, .T. ) ;
#79 = EDGE_CURVE ( 'NONE', #180, #179, #116, .T. ) ;
#80 = EDGE_CURVE ( 'NONE', #185, #186, #117, .T. ) ;
#81 = EDGE_CURVE ( 'NONE', #182, #177, #118, .T. ) ;
#82 = EDGE_CURVE ( 'NONE', #181, #178, #119, .T. ) ;
#83 = APPLICATION_CONTEXT ( 'automotive_design' ) ;
#84 = APPLICATION_CONTEXT ( 'automotive_design' ) ;
#85 = ORIENTED_EDGE ( 'NONE', *, *, #80, .T. ) ;
#86 = ORIENTED_EDGE ( 'NONE', *, *, #78, .T. ) ;
#87 = EDGE_CURVE ( 'NONE', #177, #183, #207, .T. ) ;
#88 = EDGE_CURVE ( 'NONE', #178, #181, #121, .T. ) ;
#89 = EDGE_CURVE ( 'NONE', #180, #177, #214, .T. ) ;
#90 = EDGE_CURVE ( 'NONE', #179, #182, #217, .T. ) ;
#91 = EDGE_CURVE ( 'NONE', #179, #178, #220, .T. ) ;
#92 = EDGE_CURVE ( 'NONE', #185, #187, #223, .T. ) ;
#93 = CIRCLE ( 'NONE', #141, 0.2500000000000000000 ) ;
#94 = EDGE_CURVE ( 'NONE', #184, #183, #120, .T. ) ;
#95 = EDGE_CURVE ( 'NONE', #188, #187, #122, .T. ) ;
#96 = EDGE_CURVE ( 'NONE', #186, #185, #123, .T. ) ;
#97 = EDGE_CURVE ( 'NONE', #180, #181, #235, .T. ) ;
#98 = EDGE_CURVE ( 'NONE', #183, #184, #124, .T. ) ;
#99 = EDGE_CURVE ( 'NONE', #177, #182, #125, .T. ) ;
#100 = DIMENSIONAL_EXPONENTS ( 1.000000000000000000, 0.0000000000000000000, 0.0000000000000000000, 0.0000000000000000000, 0.0000000000000000000, 0.0000000000000000000, 0.0000000000000000000 ) ;
#101 = PRODUCT ( 'RH500D-F2', 'RH500D-F2', '', ( #322 ) ) ;
#102 = DIMENSIONAL_EXPONENTS ( 1.000000000000000000, 0.0000000000000000000, 0.0000000000000000000, 0.0000000000000000000, 0.0000000000000000000, 0.0000000000000000000, 0.0000000000000000000 ) ;
#103 = DIMENSIONAL_EXPONENTS ( 1.000000000000000000, 0.0000000000000000000, 0.0000000000000000000, 0.0000000000000000000, 0.0000000000000000000, 0.0000000000000000000, 0.0000000000000000000 ) ;
#104 = EDGE_CURVE ( 'NONE', #182, #184, #244, .T. ) ;
#105 = EDGE_CURVE ( 'NONE', #179, #180, #126, .T. ) ;
#106 = ADVANCED_FACE ( 'NONE', ( #23 ), #127, .F. ) ;
#107 = ADVANCED_FACE ( 'NONE', ( #24 ), #128, .F. ) ;
#108 = ADVANCED_FACE ( 'NONE', ( #28 ), #31, .F. ) ;
#109 = ADVANCED_FACE ( 'NONE', ( #26 ), #34, .T. ) ;
#110 = ADVANCED_FACE ( 'NONE', ( #32 ), #37, .T. ) ;
#111 = ADVANCED_FACE ( 'NONE', ( #35, #39 ), #264, .T. ) ;
#112 = ADVANCED_FACE ( 'NONE', ( #40, #38 ), #268, .F. ) ;
#113 = ADVANCED_FACE ( 'NONE', ( #43 ), #46, .F. ) ;
#114 = ADVANCED_FACE ( 'NONE', ( #41 ), #129, .F. ) ;
#115 = ADVANCED_FACE ( 'NONE', ( #48 ), #130, .F. ) ;
#116 = CIRCLE ( 'NONE', #136, 0.07749999999999995800 ) ;
#117 = CIRCLE ( 'NONE', #145, 0.2500000000000000000 ) ;
#118 = CIRCLE ( 'NONE', #144, 0.07749999999999995800 ) ;
#119 = CIRCLE ( 'NONE', #142, 0.1874999999999999700 ) ;
#120 = CIRCLE ( 'NONE', #13, 0.1874999999999999700 ) ;
#121 = CIRCLE ( 'NONE', #143, 0.1874999999999999700 ) ;
#122 = CIRCLE ( 'NONE', #19, 0.2500000000000000000 ) ;
#123 = CIRCLE ( 'NONE', #17, 0.2500000000000000000 ) ;
#124 = CIRCLE ( 'NONE', #20, 0.1874999999999999700 ) ;
#125 = CIRCLE ( 'NONE', #138, 0.07749999999999995800 ) ;
#126 = CIRCLE ( 'NONE', #137, 0.07749999999999995800 ) ;
#127 = CONICAL_SURFACE ( 'NONE', #27, 0.1874999999999999700, 0.7155849933176756700 ) ;
#128 = CONICAL_SURFACE ( 'NONE', #29, 0.1874999999999999700, 0.7155849933176752200 ) ;
#129 = CONICAL_SURFACE ( 'NONE', #49, 0.1874999999999999700, 0.7155849933176752200 ) ;
#130 = CONICAL_SURFACE ( 'NONE', #51, 0.1874999999999999700, 0.7155849933176756700 ) ;
#131 = COLOUR_RGB ( '',0.5686274509803921400, 0.5686274509803921400, 0.5882352941176470800 ) ;
#132 = COLOUR_RGB ( '',0.5686274509803921400, 0.5686274509803921400, 0.5882352941176470800 ) ;
#133 = PRODUCT_DEFINITION ( 'UNKNOWN', '', #59, #74 ) ;
#134 = PRODUCT_RELATED_PRODUCT_CATEGORY ( 'part', '', ( #101 ) ) ;
#135 = VECTOR ( 'NONE', #209, 39.37007874015748100 ) ;
#136 = AXIS2_PLACEMENT_3D ( 'NONE', #195, #196, #197 ) ;
#137 = AXIS2_PLACEMENT_3D ( 'NONE', #243, #247, #248 ) ;
#138 = AXIS2_PLACEMENT_3D ( 'NONE', #240, #241, #242 ) ;
#139 = CLOSED_SHELL ( 'NONE', ( #106, #107, #108, #109, #110, #111, #112, #113, #114, #115 ) ) ;
#140 = VECTOR ( 'NONE', #191, 39.37007874015748100 ) ;
#141 = AXIS2_PLACEMENT_3D ( 'NONE', #192, #193, #194 ) ;
#142 = AXIS2_PLACEMENT_3D ( 'NONE', #204, #205, #206 ) ;
#143 = AXIS2_PLACEMENT_3D ( 'NONE', #210, #211, #212 ) ;
#144 = AXIS2_PLACEMENT_3D ( 'NONE', #201, #202, #203 ) ;
#145 = AXIS2_PLACEMENT_3D ( 'NONE', #198, #199, #200 ) ;
#146 = MANIFOLD_SOLID_BREP ( 'CSK for #10 Flat Head Machine Screw2', #139 ) ;
#147 = ORIENTED_EDGE ( 'NONE', *, *, #78, .F. ) ;
#148 = ORIENTED_EDGE ( 'NONE', *, *, #88, .F. ) ;
#149 = ORIENTED_EDGE ( 'NONE', *, *, #89, .F. ) ;
#150 = ORIENTED_EDGE ( 'NONE', *, *, #94, .F. ) ;
#151 = ORIENTED_EDGE ( 'NONE', *, *, #96, .T. ) ;
#152 = ORIENTED_EDGE ( 'NONE', *, *, #95, .T. ) ;
#153 = EDGE_LOOP ( 'NONE', ( #8, #5, #71, #11 ) ) ;
#154 = EDGE_LOOP ( 'NONE', ( #66, #67, #68, #9 ) ) ;
#155 = EDGE_LOOP ( 'NONE', ( #149, #73, #60, #10 ) ) ;
#156 = EDGE_LOOP ( 'NONE', ( #12, #147 ) ) ;
#157 = EDGE_LOOP ( 'NONE', ( #65, #148 ) ) ;
#158 = EDGE_LOOP ( 'NONE', ( #151, #85 ) ) ;
#159 = EDGE_LOOP ( 'NONE', ( #150, #1 ) ) ;
#160 = EDGE_LOOP ( 'NONE', ( #76, #6, #7, #152 ) ) ;
#161 = EDGE_LOOP ( 'NONE', ( #72, #69, #86, #70 ) ) ;
#162 = EDGE_LOOP ( 'NONE', ( #171, #168, #174, #167 ) ) ;
#163 = EDGE_LOOP ( 'NONE', ( #166, #169, #173, #176 ) ) ;
#164 = EDGE_LOOP ( 'NONE', ( #165, #172, #175, #170 ) ) ;
#165 = ORIENTED_EDGE ( 'NONE', *, *, #105, .F. ) ;
#166 = ORIENTED_EDGE ( 'NONE', *, *, #99, .F. ) ;
#167 = ORIENTED_EDGE ( 'NONE', *, *, #90, .F. ) ;
#168 = ORIENTED_EDGE ( 'NONE', *, *, #89, .T. ) ;
#169 = ORIENTED_EDGE ( 'NONE', *, *, #87, .T. ) ;
#170 = ORIENTED_EDGE ( 'NONE', *, *, #97, .F. ) ;
#171 = ORIENTED_EDGE ( 'NONE', *, *, #105, .T. ) ;
#172 = ORIENTED_EDGE ( 'NONE', *, *, #91, .T. ) ;
#173 = ORIENTED_EDGE ( 'NONE', *, *, #98, .T. ) ;
#174 = ORIENTED_EDGE ( 'NONE', *, *, #99, .T. ) ;
#175 = ORIENTED_EDGE ( 'NONE', *, *, #88, .T. ) ;
#176 = ORIENTED_EDGE ( 'NONE', *, *, #104, .F. ) ;
#177 = VERTEX_POINT ( 'NONE', #291 ) ;
#178 = VERTEX_POINT ( 'NONE', #292 ) ;
#179 = VERTEX_POINT ( 'NONE', #293 ) ;
#180 = VERTEX_POINT ( 'NONE', #294 ) ;
#181 = VERTEX_POINT ( 'NONE', #295 ) ;
#182 = VERTEX_POINT ( 'NONE', #296 ) ;
#183 = VERTEX_POINT ( 'NONE', #297 ) ;
#184 = VERTEX_POINT ( 'NONE', #298 ) ;
#185 = VERTEX_POINT ( 'NONE', #299 ) ;
#186 = VERTEX_POINT ( 'NONE', #300 ) ;
#187 = VERTEX_POINT ( 'NONE', #301 ) ;
#188 = VERTEX_POINT ( 'NONE', #302 ) ;
#189 = LINE ( 'NONE', #190, #140 ) ;
#190 = CARTESIAN_POINT ( 'NONE',  ( 0.0000000000000000000, 0.5000000000000000000, -0.2500000000000000000 ) ) ;
#191 = DIRECTION ( 'NONE',  ( -0.0000000000000000000, -1.000000000000000000, -0.0000000000000000000 ) ) ;
#192 = CARTESIAN_POINT ( 'NONE',  ( 0.0000000000000000000, 0.0000000000000000000, 0.0000000000000000000 ) ) ;
#193 = DIRECTION ( 'NONE',  ( 0.0000000000000000000, 1.000000000000000000, 0.0000000000000000000 ) ) ;
#194 = DIRECTION ( 'NONE',  ( 0.0000000000000000000, 0.0000000000000000000, 1.000000000000000000 ) ) ;
#195 = CARTESIAN_POINT ( 'NONE',  ( 0.0000000000000000000, 0.1265405247943109400, 0.0000000000000000000 ) ) ;
#196 = DIRECTION ( 'NONE',  ( -0.0000000000000000000, -1.000000000000000000, -0.0000000000000000000 ) ) ;
#197 = DIRECTION ( 'NONE',  ( 0.0000000000000000000, 0.0000000000000000000, -1.000000000000000000 ) ) ;
#198 = CARTESIAN_POINT ( 'NONE',  ( 0.0000000000000000000, 0.5000000000000000000, 0.0000000000000000000 ) ) ;
#199 = DIRECTION ( 'NONE',  ( 0.0000000000000000000, 1.000000000000000000, 0.0000000000000000000 ) ) ;
#200 = DIRECTION ( 'NONE',  ( 0.0000000000000000000, 0.0000000000000000000, 1.000000000000000000 ) ) ;
#201 = CARTESIAN_POINT ( 'NONE',  ( 0.0000000000000000000, 0.3734594752056889500, 0.0000000000000000000 ) ) ;
#202 = DIRECTION ( 'NONE',  ( -0.0000000000000000000, 1.000000000000000000, -0.0000000000000000000 ) ) ;
#203 = DIRECTION ( 'NONE',  ( 0.0000000000000000000, 0.0000000000000000000, 1.000000000000000000 ) ) ;
#204 = CARTESIAN_POINT ( 'NONE',  ( 0.0000000000000000000, 0.0000000000000000000, 0.0000000000000000000 ) ) ;
#205 = DIRECTION ( 'NONE',  ( -0.0000000000000000000, -1.000000000000000000, -0.0000000000000000000 ) ) ;
#206 = DIRECTION ( 'NONE',  ( 0.0000000000000000000, 0.0000000000000000000, -1.000000000000000000 ) ) ;
#207 = LINE ( 'NONE', #208, #135 ) ;
#208 = CARTESIAN_POINT ( 'NONE',  ( 2.296212748401286800E-017, 0.5000000000000000000, -0.1874999999999999700 ) ) ;
#209 = DIRECTION ( 'NONE',  ( 8.034405899049455000E-017, 0.7547095802227719000, -0.6560590289905073900 ) ) ;
#210 = CARTESIAN_POINT ( 'NONE',  ( 0.0000000000000000000, 0.0000000000000000000, 0.0000000000000000000 ) ) ;
#211 = DIRECTION ( 'NONE',  ( -0.0000000000000000000, -1.000000000000000000, -0.0000000000000000000 ) ) ;
#212 = DIRECTION ( 'NONE',  ( 0.0000000000000000000, 0.0000000000000000000, -1.000000000000000000 ) ) ;
#213 = CARTESIAN_POINT ( 'NONE',  ( 0.0000000000000000000, 0.5000000000000000000, 0.0000000000000000000 ) ) ;
#214 = LINE ( 'NONE', #215, #14 ) ;
#215 = CARTESIAN_POINT ( 'NONE',  ( 9.491012693391983300E-018, 0.5000000000000000000, -0.07749999999999995800 ) ) ;
#216 = DIRECTION ( 'NONE',  ( -0.0000000000000000000, 1.000000000000000000, -0.0000000000000000000 ) ) ;
#217 = LINE ( 'NONE', #218, #15 ) ;
#218 = CARTESIAN_POINT ( 'NONE',  ( 0.0000000000000000000, 0.5000000000000000000, 0.07749999999999995800 ) ) ;
#219 = DIRECTION ( 'NONE',  ( -0.0000000000000000000, 1.000000000000000000, -0.0000000000000000000 ) ) ;
#220 = LINE ( 'NONE', #221, #16 ) ;
#221 = CARTESIAN_POINT ( 'NONE',  ( 2.296212748401286800E-017, 0.0000000000000000000, 0.1874999999999999700 ) ) ;
#222 = DIRECTION ( 'NONE',  ( 8.034405899049458700E-017, -0.7547095802227716800, 0.6560590289905077200 ) ) ;
#223 = LINE ( 'NONE', #224, #18 ) ;
#224 = CARTESIAN_POINT ( 'NONE',  ( 3.061616997868383000E-017, 0.5000000000000000000, 0.2500000000000000000 ) ) ;
#225 = DIRECTION ( 'NONE',  ( -0.0000000000000000000, -1.000000000000000000, -0.0000000000000000000 ) ) ;
#226 = DIRECTION ( 'NONE',  ( -0.0000000000000000000, 1.000000000000000000, -0.0000000000000000000 ) ) ;
#227 = DIRECTION ( 'NONE',  ( 0.0000000000000000000, 0.0000000000000000000, 1.000000000000000000 ) ) ;
#228 = CARTESIAN_POINT ( 'NONE',  ( 0.0000000000000000000, 0.0000000000000000000, 0.0000000000000000000 ) ) ;
#229 = DIRECTION ( 'NONE',  ( 0.0000000000000000000, 1.000000000000000000, 0.0000000000000000000 ) ) ;
#230 = DIRECTION ( 'NONE',  ( 0.0000000000000000000, 0.0000000000000000000, 1.000000000000000000 ) ) ;
#231 = CARTESIAN_POINT ( 'NONE',  ( 0.0000000000000000000, 0.5000000000000000000, 0.0000000000000000000 ) ) ;
#232 = DIRECTION ( 'NONE',  ( 0.0000000000000000000, 1.000000000000000000, 0.0000000000000000000 ) ) ;
#233 = DIRECTION ( 'NONE',  ( 0.0000000000000000000, 0.0000000000000000000, 1.000000000000000000 ) ) ;
#234 = CARTESIAN_POINT ( 'NONE',  ( 0.0000000000000000000, 0.5000000000000000000, 0.0000000000000000000 ) ) ;
#235 = LINE ( 'NONE', #236, #22 ) ;
#236 = CARTESIAN_POINT ( 'NONE',  ( 0.0000000000000000000, 0.0000000000000000000, -0.1874999999999999700 ) ) ;
#237 = DIRECTION ( 'NONE',  ( 0.0000000000000000000, -0.7547095802227716800, -0.6560590289905077200 ) ) ;
#238 = DIRECTION ( 'NONE',  ( -0.0000000000000000000, 1.000000000000000000, -0.0000000000000000000 ) ) ;
#239 = DIRECTION ( 'NONE',  ( 0.0000000000000000000, 0.0000000000000000000, 1.000000000000000000 ) ) ;
#240 = CARTESIAN_POINT ( 'NONE',  ( 0.0000000000000000000, 0.3734594752056889500, 0.0000000000000000000 ) ) ;
#241 = DIRECTION ( 'NONE',  ( -0.0000000000000000000, 1.000000000000000000, -0.0000000000000000000 ) ) ;
#242 = DIRECTION ( 'NONE',  ( 0.0000000000000000000, 0.0000000000000000000, 1.000000000000000000 ) ) ;
#243 = CARTESIAN_POINT ( 'NONE',  ( 0.0000000000000000000, 0.1265405247943109400, 0.0000000000000000000 ) ) ;
#244 = LINE ( 'NONE', #245, #25 ) ;
#245 = CARTESIAN_POINT ( 'NONE',  ( 0.0000000000000000000, 0.5000000000000000000, 0.1874999999999999700 ) ) ;
#246 = DIRECTION ( 'NONE',  ( 0.0000000000000000000, 0.7547095802227719000, 0.6560590289905073900 ) ) ;
#247 = DIRECTION ( 'NONE',  ( -0.0000000000000000000, -1.000000000000000000, -0.0000000000000000000 ) ) ;
#248 = DIRECTION ( 'NONE',  ( 0.0000000000000000000, 0.0000000000000000000, -1.000000000000000000 ) ) ;
#249 = CARTESIAN_POINT ( 'NONE',  ( 0.0000000000000000000, 0.0000000000000000000, 0.0000000000000000000 ) ) ;
#250 = DIRECTION ( 'NONE',  ( -0.0000000000000000000, -1.000000000000000000, -0.0000000000000000000 ) ) ;
#251 = DIRECTION ( 'NONE',  ( 0.0000000000000000000, 0.0000000000000000000, -1.000000000000000000 ) ) ;
#252 = CARTESIAN_POINT ( 'NONE',  ( 0.0000000000000000000, 0.5000000000000000000, 0.0000000000000000000 ) ) ;
#253 = DIRECTION ( 'NONE',  ( -0.0000000000000000000, 1.000000000000000000, -0.0000000000000000000 ) ) ;
#254 = DIRECTION ( 'NONE',  ( 0.0000000000000000000, 0.0000000000000000000, 1.000000000000000000 ) ) ;
#255 = CARTESIAN_POINT ( 'NONE',  ( 0.0000000000000000000, 0.5000000000000000000, 0.0000000000000000000 ) ) ;
#256 = DIRECTION ( 'NONE',  ( -0.0000000000000000000, 1.000000000000000000, -0.0000000000000000000 ) ) ;
#257 = DIRECTION ( 'NONE',  ( 0.0000000000000000000, 0.0000000000000000000, 1.000000000000000000 ) ) ;
#258 = CARTESIAN_POINT ( 'NONE',  ( 0.0000000000000000000, 0.5000000000000000000, 0.0000000000000000000 ) ) ;
#259 = DIRECTION ( 'NONE',  ( -0.0000000000000000000, -1.000000000000000000, -0.0000000000000000000 ) ) ;
#260 = DIRECTION ( 'NONE',  ( 0.0000000000000000000, 0.0000000000000000000, -1.000000000000000000 ) ) ;
#261 = CARTESIAN_POINT ( 'NONE',  ( 0.0000000000000000000, 0.5000000000000000000, 0.0000000000000000000 ) ) ;
#262 = DIRECTION ( 'NONE',  ( -0.0000000000000000000, -1.000000000000000000, -0.0000000000000000000 ) ) ;
#263 = DIRECTION ( 'NONE',  ( 0.0000000000000000000, 0.0000000000000000000, -1.000000000000000000 ) ) ;
#264 = PLANE ( 'NONE',  #42 ) ;
#265 = CARTESIAN_POINT ( 'NONE',  ( 0.0000000000000000000, 0.5000000000000000000, 0.0000000000000000000 ) ) ;
#266 = DIRECTION ( 'NONE',  ( 0.0000000000000000000, 1.000000000000000000, 0.0000000000000000000 ) ) ;
#267 = DIRECTION ( 'NONE',  ( 0.0000000000000000000, -0.0000000000000000000, 1.000000000000000000 ) ) ;
#268 = PLANE ( 'NONE',  #45 ) ;
#269 = CARTESIAN_POINT ( 'NONE',  ( 0.0000000000000000000, 0.0000000000000000000, 0.0000000000000000000 ) ) ;
#270 = DIRECTION ( 'NONE',  ( 0.0000000000000000000, 1.000000000000000000, 0.0000000000000000000 ) ) ;
#271 = DIRECTION ( 'NONE',  ( 0.0000000000000000000, -0.0000000000000000000, 1.000000000000000000 ) ) ;
#272 = CARTESIAN_POINT ( 'NONE',  ( 0.0000000000000000000, 0.5000000000000000000, 0.0000000000000000000 ) ) ;
#273 = DIRECTION ( 'NONE',  ( -0.0000000000000000000, 1.000000000000000000, -0.0000000000000000000 ) ) ;
#274 = DIRECTION ( 'NONE',  ( 0.0000000000000000000, 0.0000000000000000000, 1.000000000000000000 ) ) ;
#275 = CARTESIAN_POINT ( 'NONE',  ( 0.0000000000000000000, 0.5000000000000000000, 0.0000000000000000000 ) ) ;
#276 = DIRECTION ( 'NONE',  ( -0.0000000000000000000, 1.000000000000000000, -0.0000000000000000000 ) ) ;
#277 = DIRECTION ( 'NONE',  ( 0.0000000000000000000, 0.0000000000000000000, 1.000000000000000000 ) ) ;
#278 = CARTESIAN_POINT ( 'NONE',  ( 0.0000000000000000000, 0.0000000000000000000, 0.0000000000000000000 ) ) ;
#279 = DIRECTION ( 'NONE',  ( -0.0000000000000000000, -1.000000000000000000, -0.0000000000000000000 ) ) ;
#280 = DIRECTION ( 'NONE',  ( 0.0000000000000000000, 0.0000000000000000000, -1.000000000000000000 ) ) ;
#281 = FILL_AREA_STYLE_COLOUR ( '', #131 ) ;
#282 = FILL_AREA_STYLE ('',( #281 ) ) ;
#283 = SURFACE_STYLE_FILL_AREA ( #282 ) ;
#284 = SURFACE_SIDE_STYLE ('',( #283 ) ) ;
#285 = SURFACE_STYLE_USAGE ( .BOTH. , #284 ) ;
#286 = PRESENTATION_STYLE_ASSIGNMENT (( #285 ) ) ;
#287 =( LENGTH_UNIT ( ) NAMED_UNIT ( * ) SI_UNIT ( $, .METRE. ) );
#288 =( CONVERSION_BASED_UNIT ( 'INCH', #53 ) LENGTH_UNIT ( ) NAMED_UNIT ( #103 ) );
#289 =( NAMED_UNIT ( * ) PLANE_ANGLE_UNIT ( ) SI_UNIT ( $, .RADIAN. ) );
#290 =( NAMED_UNIT ( * ) SI_UNIT ( $, .STERADIAN. ) SOLID_ANGLE_UNIT ( ) );
#291 = CARTESIAN_POINT ( 'NONE',  ( 9.491012693391983300E-018, 0.3734594752056889500, -0.07749999999999995800 ) ) ;
#292 = CARTESIAN_POINT ( 'NONE',  ( 2.296212748401286800E-017, 0.0000000000000000000, 0.1874999999999999700 ) ) ;
#293 = CARTESIAN_POINT ( 'NONE',  ( 0.0000000000000000000, 0.1265405247943109400, 0.07749999999999995800 ) ) ;
#294 = CARTESIAN_POINT ( 'NONE',  ( 9.491012693391983300E-018, 0.1265405247943109400, -0.07749999999999995800 ) ) ;
#295 = CARTESIAN_POINT ( 'NONE',  ( 0.0000000000000000000, 0.0000000000000000000, -0.1874999999999999700 ) ) ;
#296 = CARTESIAN_POINT ( 'NONE',  ( 0.0000000000000000000, 0.3734594752056889500, 0.07749999999999995800 ) ) ;
#297 = CARTESIAN_POINT ( 'NONE',  ( 2.296212748401286800E-017, 0.5000000000000000000, -0.1874999999999999700 ) ) ;
#298 = CARTESIAN_POINT ( 'NONE',  ( 0.0000000000000000000, 0.5000000000000000000, 0.1874999999999999700 ) ) ;
#299 = CARTESIAN_POINT ( 'NONE',  ( 3.061616997868383000E-017, 0.5000000000000000000, 0.2500000000000000000 ) ) ;
#300 = CARTESIAN_POINT ( 'NONE',  ( 0.0000000000000000000, 0.5000000000000000000, -0.2500000000000000000 ) ) ;
#301 = CARTESIAN_POINT ( 'NONE',  ( 3.061616997868383000E-017, 0.0000000000000000000, 0.2500000000000000000 ) ) ;
#302 = CARTESIAN_POINT ( 'NONE',  ( 0.0000000000000000000, 0.0000000000000000000, -0.2500000000000000000 ) ) ;
#303 =( LENGTH_UNIT ( ) NAMED_UNIT ( * ) SI_UNIT ( $, .METRE. ) );
#304 =( CONVERSION_BASED_UNIT ( 'INCH', #44 ) LENGTH_UNIT ( ) NAMED_UNIT ( #102 ) );
#305 =( NAMED_UNIT ( * ) PLANE_ANGLE_UNIT ( ) SI_UNIT ( $, .RADIAN. ) );
#306 =( NAMED_UNIT ( * ) SI_UNIT ( $, .STERADIAN. ) SOLID_ANGLE_UNIT ( ) );
#307 = APPLICATION_PROTOCOL_DEFINITION ( 'draft international standard', 'automotive_design', 1998, #83 ) ;
#308 = FILL_AREA_STYLE_COLOUR ( '', #132 ) ;
#309 = FILL_AREA_STYLE ('',( #308 ) ) ;
#310 = SURFACE_STYLE_FILL_AREA ( #309 ) ;
#311 = SURFACE_SIDE_STYLE ('',( #310 ) ) ;
#312 = SURFACE_STYLE_USAGE ( .BOTH. , #311 ) ;
#313 = PRESENTATION_STYLE_ASSIGNMENT (( #312 ) ) ;
#314 =( LENGTH_UNIT ( ) NAMED_UNIT ( * ) SI_UNIT ( $, .METRE. ) );
#315 =( CONVERSION_BASED_UNIT ( 'INCH', #57 ) LENGTH_UNIT ( ) NAMED_UNIT ( #100 ) );
#316 =( NAMED_UNIT ( * ) PLANE_ANGLE_UNIT ( ) SI_UNIT ( $, .RADIAN. ) );
#317 =( NAMED_UNIT ( * ) SI_UNIT ( $, .STERADIAN. ) SOLID_ANGLE_UNIT ( ) );
#318 = CARTESIAN_POINT ( 'NONE',  ( 0.0000000000000000000, 0.0000000000000000000, 0.0000000000000000000 ) ) ;
#319 = DIRECTION ( 'NONE',  ( 0.0000000000000000000, 0.0000000000000000000, 1.000000000000000000 ) ) ;
#320 = DIRECTION ( 'NONE',  ( 1.000000000000000000, 0.0000000000000000000, 0.0000000000000000000 ) ) ;
#321 = SHAPE_DEFINITION_REPRESENTATION ( #75, #61 ) ;
#322 = PRODUCT_CONTEXT ( 'NONE', #83, 'mechanical' ) ;
#323 = APPLICATION_PROTOCOL_DEFINITION ( 'draft international standard', 'automotive_design', 1998, #84 ) ;
ENDSEC;
END-ISO-10303-21;
